Oops, an error
Loading. Please wait.

Out In The Past chords

5,341 views 12 this week
1 commentread comment
1 2 3 4 5
1 last vote to show rating
add to favorites
×
Save as Personal and add changes to this tab that will be seen only by you. Learn more ›
×
You can save this tab as Personal to edit and correct it or add notes. All changes will be seen only by you. Learn more »
launch autoscroll
font size
0
reset
transpose
0
reset
display chords
guitar tuner
edit
Autoscroll
slow
fast
+/-
esc
set tempo
stop
Author
Strumming
There is no strumming pattern for this song yet. and get +5 IQ
Out in the past

A
This little town hasn't changed so much
A
Not since the time of life
              F#m
When we would lie out and talk but we couldn't be touched
      F#m        
Then you'd go away when the morning was light
A
But sure enough well we had to grow up
A
There was nothing like a full time job to put out a fire
F#m
We were young, and wasn't in love
F#m
But we were having fun getting carried away

A
But now that seems so long ago
F#m
Out the door and down the road
A
I sometimes think when I'm alone
F#m
Of the times we had but now we don't

    D
But out in the past we were running around
F#m
Sometimes so fast that we fell on the ground
       D
It was so hard to stop, you never could tell
    F#m
But all I saw was you

A
And every place that we talk about
A
Don't seem too far away
          F#m
When you rely on yourself and the one you're around
    F#m
And always believe everything that they say
A
But little talk isn't always enough
A
And just cos you're still in love, doesn't mean you're a liar
F#m
We were young, and that was enough
F#m
But life has a habit of getting in the way

A
But now that seems so long ago
F#m
Out the door and down the road
A
I sometimes think when I'm alone
F#m
Of the times we had but now we don't

   D
But out in the past we were running around
F#m
Sometimes so fast that we fell on the ground
       D
It was so hard to stop, you never could tell
    F#m
But all I saw was you


            
            
Suggest correction
Creating personal tab
Creating personal tab
You can edit any tab online and save it as your Personal.

You can edit, replace or remove any tab part or add personal notes – all changes will be seen only by you.

Personal tabs can be accessed anytime from any device, even offline.
Learn more »
Give kudos to tab author, rate the tab!
1 2 3 4 5
comments
print report bad tab
1 comment total.
0 reply
cjbyers14 121 Jul 14, 2009 05:27 AM

the lead bit at the beginning goes something like this

e|----9---9---9---9----9----9---9---9-|
b|-10--10---9---9---10---10---9-------|
d|--------------------------------9---|
g|------------------------------------|
a|------------------------------------|
e|------------------------------------|

then

e|-13-13-11-11--------------------------------------|
b|-------------13-13-11-11-13-13-11-11--------------|
d|--------------------------------------13-13-10-10-|
g|--------------------------------------------------|
a|--------------------------------------------------|
e|--------------------------------------------------|

solo goes

e|-9-9-9-9-9-9-9-9-9-9-9-11--------|
b|-------------------------10-10---|
d|---------------------------------|
g|---------------------------------|
a|---------------------------------|
e|---------------------------------|

guest
You may want to rate the tab now too:
select rating
Wanna post a correction for this tab? Suggest correction