Oops, an error
Loading. Please wait.
We have Chord Pro version of Beast Of Burden.
It's the closest thing you can get to the original song and it has interactive parts. Check out the tab »
×
971 views 6 this week
1 commentread comment
1 2 3 4 5
x 3
add to favorites
×
Save as Personal and add changes to this tab that will be seen only by you. Learn more ›
×
You can save this tab as Personal to edit and correct it or add notes. All changes will be seen only by you. Learn more »
launch autoscroll
font size
0
reset
guitar tuner
backing track
0:00
0:00
edit
Autoscroll
slow
fast
+/-
esc
set tempo
stop
Author
Difficulty
Beast Of Burden by The Rolling Stones
Mick Jagger and Keith Richards
TablEdited by David Walden

4/4
Q = 100

 1   2   3       4             5        E    6             7        E    8              
G|---|---|-------|-------------|-------------|-------------|-------------|-------------|
D|---|---|-------|-------------|--------7----|-------------|--------7----|-------------|
A|---|---|-------|--7-7-7-6-4--|--4----------|--7-7-7-6-4--|--4----------|--7-7-7-6-4--|
E|---|---|--5-7--|-------------|----4-5---7--|-------------|----4-5---7--|-------------|
            E E     Q E E E E     Q E Q   E     Q E E E E     Q E Q   E     Q E E E E   
 
9        E    10            11       E    12            13       E    14             
|-------------|-------------|-------------|-------------|-------------|-------------|
|--------7----|-------------|--------7----|-------------|--------7----|-------------|
|--4----------|--7-7-7-6-4--|--4----------|--7-7-7-6-4--|--4----------|--7-7-7-6-4--|
|----4-5---7--|-------------|----4-5---7--|-------------|----4-5---7--|-------------|
   Q E Q   E     Q E E E E     Q E Q   E     Q E E E E     Q E Q   E     Q E E E E   
 
15       E    16            17       E    18       E    19            20       E     
|-------------|-------------|-------------|-------------|-------------|-------------|
|--------7----|-------------|--------7----|--------6----|-------------|--------6----|
|--4----------|--7-7-7-6-4--|--4----------|--7-7--------|-------------|--7-7--------|
|----4-5---7--|-------------|----4-5---7--|------4---7--|--5-5-5-5-7--|------4---7--|
   Q E Q   E     Q E E E E     Q E Q   E     Q E E   E     Q E Q E E     Q E E   E   
 
21            22       E    23            24       E    25            26         E     
|-------------|-------------|-------------|-------------|-------------|---------------|
|-------------|--------6----|-------------|--------6----|-------------|----------7----|
|-------------|--7-7--------|-------------|--7-7--------|----------7--|---------------|
|--5-5-5-5-7--|------4---7--|--5-5-5-7-7--|------4---7--|--5-5-5-7----|--5-5-5-5---0--|
   Q E Q E E     Q E E   E     Q E E E E     Q E E   E     Q E Q E E     E E E E   E   
 
27           E    28           E  29         E  30 H      31            32   E         
|-----------------|---------------|-------------|---------|-------------|-------------|
|------------6----|------------7--|----------6--|--9------|-------------|----7--------|
|----------7---7--|----------7----|--------7----|----7-9--|--7-7-7-6-4--|-------------|
|--4-4-4-4--------|--5-5-5-5------|--4-4-4------|---------|-------------|--5---5-5-7--|
   E E E E E   E     E E E E E       E E E E         Q Q     Q E E E E     H   Q E E   
 
33       E    34            35       E    36            37       E    38   E         
|-------------|-------------|-------------|-------------|-------------|-------------|
|--------6----|-------------|--------6----|-------------|--------6----|----7--------|
|--7-7--------|-------------|--7-7--------|-------------|--7-7--------|-------------|
|------4---7--|--5-5-5-5-7--|------4---7--|--5-5-5-5-7--|------4---7--|--5---5-5-7--|
   Q E E   E     Q E Q E E     Q E E   E     Q E Q E E     Q E E   E     Q   Q E E   
 
39         E    40         E    41         E    42         E    43         E  44           
|---------------|---------------|---------------|---------------|-------------|-----------|
|----------7----|----------6----|----------7----|----------6----|----------7--|-----------|
|--------7---7--|--------7---7--|--------7---7--|--------7---7--|----6-7------|-----------|
|--5-5-5--------|--4-4-4--------|--5-5-5--------|--4-4-4--------|--7-----9----|--7(7)7(7)-|
   E E E E   E     E E E E   E     E E E E   E     E E E E   E     H E E.E       Q S H E   
 
45            46              47            48       E    49            50       E     
|-------------|---------------|-------------|-------------|-------------|-------------|
|-------------|---------------|-------------|--------7----|-------------|--------7----|
|--7-7-7-6-4--|--4(4)---------|--7-7-7-6-4--|--4----------|--7-7-7-6-4--|--4----------|
|-------------|------4-5(5)7--|-------------|----4-5---7--|-------------|----4-5---7--|
   Q E E Q E     Q Q E Q E E     Q E E Q E     Q E E   E     Q E E Q E     Q E E   E   
 
51            52       E    53            54          55       E    56          57       E     
|-------------|-------------|-------------|-----------|-------------|-----------|-------------|
|-------------|--------7----|-------------|-----------|--------6----|-----------|--------6----|
|--7-7-7-6-4--|--4----------|--7-7-7-6-4--|-----------|--7-7--------|-----------|--7-7--------|
|-------------|----4-5---7--|-------------|--4-5-5-7--|------4---7--|--5-5-5-7--|------4---7--|
   Q E E Q E     Q E E   E     Q E E Q E     E E E E     Q E E   E     E E E E     Q E E   E   
 
58            59       E    60            61            62       E    63             
|-------------|-------------|-------------|-------------|-------------|-------------|
|-------------|--------6----|-------------|-------------|--------7----|-------------|
|-------------|--7-7--------|-------------|--7-7-7-6-4--|--4----------|--7-7-7-6-4--|
|--5-5-5-5-7--|------4---7--|--5-5-5-5-7--|-------------|----4-5---7--|-------------|
   Q E E E E     Q E E   E     Q E E E E     Q E E E E     Q E E   E     Q E E E E   
 
64       E    65            66       E    67          68       E    69          70       E     
|-------------|-------------|-------------|-----------|-------------|-----------|-------------|
|--------7----|-------------|--------7----|-----------|--------7----|-----------|--------7----|
|--4----------|--7-7-7-6-4--|--4----------|--7-7-6-4--|--4----------|--7-7-7----|--4----------|
|----4-5---7--|-------------|----4-5---7--|-----------|----4-5---7--|--------7--|----4-5---7--|
   Q E E   E     Q E E E E     Q E E   E     H E E E     Q E E   E     E E E E     Q E E   E   
 
71            72          73       E    74       E    75       E    76            77                 
|-------------|-----------|-------------|-------------|-------------|-------------|-----------------|
|-------------|-----------|--------6----|--------7----|--------6----|-------------|-----------------|
|--7-7--------|--------7--|--7-7--------|--4----------|--7-7--------|-------------|--7---7-6-7-6-4--|
|------4-4-4--|--5-5-5----|------4---7--|----4-5---7--|------4---7--|--5-5-5-5-7--|----4------------|
   Q E E E E     Q E E E     Q E E   E     Q E E   E     Q S E   E     Q E E E E     Q Q E E E E E   
 
78       E    79       E    80        81          82       E    83            84       E     
|-------------|-------------|---------|-----------|-------------|-------------|-------------|
|--------7----|--------9----|---------|-----------|--------7----|-------------|--------7----|
|--4----------|--7-7-6------|--4------|--7-6-7-4--|--4----------|--7-7-7-6-4--|--4----------|
|----4-5---7--|----------9--|----5-5--|-----------|----4-5---7--|-------------|----4-5---7--|
   Q E E   E     Q E E   E     H E S     Q E E E     Q E E   E     Q E E E E     Q E E   E   
 
85       E    86            87       E    88            89       E    90   E           
|-------------|-------------|-------------|-------------|-------------|---------------|
|--------6----|-------------|--------6----|-------------|--------6----|----7----------|
|--7-7--------|-------------|--7-7--------|-------------|--7-7--------|---------------|
|------4---7--|--5-5-5-5-7--|------4---7--|--5-5-5-5-7--|------4---7--|--5---5-5-5-7--|
   Q E E   E     Q E S S E     Q E E   E     Q E S S E     Q E E   E     Q   E S S E   
 
91       E    92   E          93            94       E    95            96       E     
|-------------|---------------|-------------|-------------|-------------|-------------|
|--------6----|----7----------|-------------|--------7----|-------------|--------7----|
|--7-7--------|---------------|--7-7-6-6-4--|--4----------|--7-7-6-6-4--|--4----------|
|------4---7--|--5---5-5-5-7--|-------------|----4-5---7--|-------------|----5-5---7--|
   Q E E   E     Q   E S S E     Q E E E E     Q E E   E     Q E E E E     Q E E   E   
 
97            98       E    99          100      E    101      E    102  E        103      E     
|-------------|-------------|-----------|-------------|-------------|-------------|-------------|
|-------------|--------7----|-----------|--------7----|--------6----|----7--------|--------6----|
|--7-7-6-6-4--|--4-4--------|--7-7-6-4--|--4-4--------|--7-7--------|-------------|--7-7--------|
|-------------|------5---7--|-----------|------5---7--|------4---7--|--5---5-5-7--|------4---7--|
   Q E E E E     Q E E   E     Q E E E     Q E E   E     Q E E   E     Q   E E E     Q E E   E   
 
104           105             106        E    107           108             109          
|-------------|---------------|---------------|-------------|---------------|-----------|
|-------------|---------------|----------7----|-------------|---------------|-----------|
|-------------|--7-7-6h7-6-4--|--4-4-X--------|--7-7-6-6-4--|--4------------|--7-7------|
|--5-5-5-5-7--|---------------|--------5---7--|-------------|----5-5-5-5-7--|------4-7--|
   Q E S S E     Q E E E E E     Q E E E   E     Q E E E E     Q E E S S E     Q Q Q E   
 


Duration Legend
---------------
W - whole
H - half
Q - quarter
E - 8th
S - 16th
T - 32nd
X - 64th
(#) note tied to previous
. - note dotted

Tablature Legend
----------------
h - hammer-on
X - dead note

Created with TablEdit http://www.tabledit.com/

            
            
Suggest correction
Creating personal tab
Creating personal tab
You can edit any tab online and save it as your Personal.

You can edit, replace or remove any tab part or add personal notes – all changes will be seen only by you.

Personal tabs can be accessed anytime from any device, even offline.
Learn more »
Give kudos to tab author, rate the tab!
1 2 3 4 5
comments
print report bad tab
1 comment total.
0 reply
MarkJC8 12 Sep 06, 2015 10:08 AM

harder to read but more accurate to recorded song than version one of bass tab.

Thanks

guest
You may want to rate the tab now too:
select rating
Wanna post a correction for this tab? Suggest correction