Oops, an error
Loading. Please wait.
We have Chord Pro version of Gimme Shelter.
It's the closest thing you can get to the original song and it has interactive parts. Check out the tab »
×
48,544 views 81 this week
2 commentsread comments
1 2 3 4 5
x 25
add to favorites
×
Save as Personal and add changes to this tab that will be seen only by you. Learn more ›
×
You can save this tab as Personal to edit and correct it or add notes. All changes will be seen only by you. Learn more »
launch autoscroll
font size
0
reset
guitar tuner
backing track
0:00
0:00
edit
Autoscroll
slow
fast
+/-
esc
set tempo
stop
Author
The Rolling Stones - Gimme shelter (bass)

Tuning: Standart
Mail: degot@bk.ru


[Intro]

G|-------------------------------------------------------------|
D|-------------------------------------------------------------|
A|----2h4-4-2h4-4-44-4-2h4---4-4-2h4-2\4-2h4-2\4-22\4-4p2------|
E|-------------------------------------------------------------|


[Riff 1]

G|-----------------------------------------------------------------------|
D|-----------------------------------------------------------------------|
A|----4-4-4-4-4-4-4-----------------------------------7-7-7-7------------|
E|------------------0-7-7-7-7-7-7-7-0-5-5-5-5-5-5-5-5--5-5-7-7-----------|


[Riff 2]

G|-----------------------------------------------------------------------|
D|-----------------------------------------------------------------------|
A|----4-4-4-4-4-4-4-4-4-4-4-4-4-4-4-2h4-4-4-4-4-4-4-4-4-4-4-4-4-4-4------|
E|-----------------------------------------------------------------------|


Order:

[Intro]
[Riff 1] x1
[Riff 2] x2
[Riff 1] x2
[Riff 2] x3
[Riff 1] x2
[Riff 2] x3
[Riff 1] x6 (Accompanies solo)
[Riff 2] x3
[Riff 1] x7 (7th time faded)

I'm 95% sure about this.


************************************

| h  Hammer-on
| p  Pull-off
| \  Slide down

************************************

            
            
Suggest correction
Creating personal tab
Creating personal tab
You can edit any tab online and save it as your Personal.

You can edit, replace or remove any tab part or add personal notes – all changes will be seen only by you.

Personal tabs can be accessed anytime from any device, even offline.
Learn more »
comments
print report bad tab
2 comments total.
+1 reply
FilipHz 20 Aug 01, 2013 02:56 AM

Nice tab. I like to keep it simple just like this cause I sing back-vocals. Upvote for you :)

0 reply
david.boyer.927 10 Jul 05, 2015 04:45 PM

Works for my Jamming band that makes me sing this thing.

guest
You may want to rate the tab now too:
select rating
Wanna post a correction for this tab? Suggest correction