Oops, an error
Loading. Please wait.
We have an official Paint It Black tab made by UG professional guitarists. Check out the tab »
×
14,441 views 33 this week
2 commentsread comments
1 2 3 4 5
x 9
add to favorites
×
Save as Personal and add changes to this tab that will be seen only by you. Learn more ›
×
You can save this tab as Personal to edit and correct it or add notes. All changes will be seen only by you. Learn more »
launch autoscroll
font size
0
reset
how to read this tab
guitar tuner
backing track
0:00
0:00
edit
Autoscroll
slow
fast
+/-
esc
set tempo
stop
Intro

e|--0-1-3-1-0-------0--------1--0-1-3-1-0-------0----------------------------|
B|-3---------3-3-2-3-3-2-0-2-3-3---------3-3-2-3-0h2h3-3-3p2p0-2h3-----------|
G|---------------------------2-----------------------------------------------|
D|---------------------------0-----------------------------------------------|
A|---------------------------0-----------------------------------------------|
E|---------------------------x-----------------------------------------------|

Verse (figure out strumming on your own, it's not too hard but it goes something like: 
U, hold, D, U, hold, D-D, U, hold, D, U ---for each chord)
(D flat)  (A)
e|-1-------2-----------------------------------------------------------------|
B|-3-------2-----------------------------------------------------------------|
G|-2-------2-----------------------------------------------------------------|
D|-0-------2-----------------------------------------------------------------|
A|-x-------x-----------------------------------------------------------------|
E|-x-------x-----------------------------------------------------------------|

Bridge (it comes after the verse I'm not sure what to call it)(progression: D,D,U then 
to the next chord... hopefully that makes sense if not just play around with it you'll 
it)
(Dflat)C   F   G   F   F   A
e|-1---x---1---3---1---1---2-------------------------------------------------|
B|-3---1---1---3---1---1---2-------------------------------------------------|
G|-2---0---2---0---2---2---2-------------------------------------------------|
D|-0---2---3---0---3---3---2-------------------------------------------------|
A|-x---3---3---2---3---3---x-------------------------------------------------|
E|-x---x---x---3---x---x---x-------------------------------------------------|

this is pretty much the song.....the progression is pretty obvious when you listen and 
breakdown/bridge thing is the same as the intro...but I had to write this tab after 
the absurdly wrong ones that were getting 4 and 5 stars on here...enjoy...it's right!

            
            
Suggest correction
Creating personal tab
Creating personal tab
You can edit any tab online and save it as your Personal.

You can edit, replace or remove any tab part or add personal notes – all changes will be seen only by you.

Personal tabs can be accessed anytime from any device, even offline.
Learn more »
comments
print report bad tab
2 comments total.
-1 reply
johncpu2k 47 May 15, 2010 07:30 PM

cmon! are you serious?! (sorry)

+1 reply
chopseee 10 Oct 19, 2011 10:59 AM

Actually this is spot on just played it on my acoustic sounded better than the others and easier to play nice one

guest
You may want to rate the tab now too:
select rating
Wanna post a correction for this tab? Suggest correction