Oops, an error
Loading. Please wait.

Sympathy For The Devil bass

version 1
version 1

Whole song

Interactive

83,354 views 126 this week
5 commentsread comments
1 2 3 4 5
x 33
add to favorites
×
Save as Personal and add changes to this tab that will be seen only by you. Learn more ›
×
You can save this tab as Personal to edit and correct it or add notes. All changes will be seen only by you. Learn more »
launch autoscroll
font size
0
reset
guitar tuner
backing track
0:00
0:00
edit
Autoscroll
slow
fast
+/-
esc
set tempo
stop
Author
Unregistered
Note: On my recording, this song is quite flat (about halfway between being in
Eb and E). I've written it out in E, but you might want to transpose.


[Introduction]

   2x
G|----------------|----------------|----------------|----------------|
D|----------------|----------------|----------------|----------------|
A|7---------------|5---------------|----------------|7---------------|
E|----------------|----------------|5---------------|----------------|


[Main riff]

  1   2   3   4    1   2   3   4    1   2   3   4    1   2   3   4  
G|----------------|----------------|----------------|----------------|
D|----------------|----------------|----------------|----------------|
A|7-7-7--7-7--7-7-|5-5-5--5-5--5-5-|4-4------4--5-6-|7-7-7--7-7--7-7-|
E|------7----7-7--|------5----5-5--|----5-55--------|------7----7-7-7|


[Variation] (mixed in with the main riff randomly)

  1   2   3   4    1   2   3   4    1   2   3   4    1   2   3   4  
G|----------------|----------------|----------------|----------------|
D|-------7-6--76--|-------5-4--54--|----------------|----------------|
A|7-7-7-7----7--7-|5-5-5-5----5--5-|4-4-4-4--44-5-6-|7-7-7--7-7-75-6-|
E|----------------|----------------|-------5--------|------7---------|


"Pleased to meet you..."

G|----------------|----------------|----------------|----------------|----------------|
D|----------------|----------------|----------------|----------------|----------------|
A|7-7-7--7-7--7-7-|----------------|-----------4-567|7-7-7--7-7--7-7-|7-7-7--7-7------|
E|------7----7-7--|7-7-7-77-7-7777-|7-77-7-7-7------|------7----7-7--|------7---4-5-6-|

G|----------------|-------------------|----------------|-----------------|
D|----------------|-------------------|----------------|-------7-6--7-6--|
A|----------------|-----------4--5-6-7|7-7-7--7-7--7-7-|7-7-7------7---7-|
E|7-7-7-77-74-5-6-|7-77-7-7-7---------|------7----7-7--|-----------------|

            
            
Suggest correction
Creating personal tab
Creating personal tab
You can edit any tab online and save it as your Personal.

You can edit, replace or remove any tab part or add personal notes – all changes will be seen only by you.

Personal tabs can be accessed anytime from any device, even offline.
Learn more »
comments
print report bad tab
5 comments total. Showing first comments.
+1 reply
Wiegraf 50 May 14, 2005 08:00 PM

You suck. This tab is good.

0 reply
steveharris3 72 Aug 31, 2006 04:40 PM

good tab. but the album is beggars banquet. I know it was on a few others but thats the original

0 reply
brianjones 20 Apr 22, 2009 08:56 PM

Great tab man!

guest
Wanna post a correction for this tab? Suggest correction