Oops, an error
Loading. Please wait.

Passion chords

785 views 1 this week
no commentswrite comment
1 2 3 4 5
1 last vote to show rating
add to favorites
×
Save as Personal and add changes to this tab that will be seen only by you. Learn more ›
×
You can save this tab as Personal to edit and correct it or add notes. All changes will be seen only by you. Learn more »
launch autoscroll
font size
0
reset
transpose
0
reset
simplify chords
display chords
guitar tuner
edit
Autoscroll
slow
fast
+/-
esc
set tempo
stop
Strumming
There is no strumming pattern for this song yet. and get +5 IQ
The bridge is not perfect at all, so feel free to leave any corrections as a response.!


Intro:
CAPO 5:
E |----------------------------|
B |--3s-1--3--5--5-----3-------|
G |----------------------------|
D |----------------------------|
A |----------------------------|
E |----------------------------|


--1-------------------------------------------------|
--------5-----3-----1-----0-----------------0h-1----|
----------------------------------------------------|
----------------------------------------------------|
----------------------------------------------------|
----------------------------------------------------|


----------------------------------------------------|----------------|----||
--3-----5-----3-----1-------------------------------|--0-------------|----||
--------------------------0-----------------0h-2----|-----0--2-------|----||
----------------------------------------------------|----------------|----||
----------------------------------------------------|----------------|----||
----------------------------------------------------|----------------|----||

Capo 5:

Am
 It's the passion that keeps our hands together
 C           D
 during this great sleep
Am                                     C 
 It's a test drive: The human love for pleasure
   G         D7
 A nature so foolish



Am                                      
 Take your suitcase from underneath the floorboards;
        C             D
 we are leaving these settings
Am                                    C
 'Cause what will it take to halt the mug here?
      G            D7
 Your words are at war, dear


C        D         C          D           C
 And our love roams through a vivid fantasy
        D              Em         D
 Please take me to the depths of sanity
C    D         C        D                   C
 The hate glows in your face when you can't sleep
           D             Em
 There's a war inside your dreams



Am                                              
 It's the passion that takes us to the party 
       C          D
 where everyone's dancing
Am                  
 And the steps go on and on
           C               G               D7
 and these people make you think like the insane



Bm                 C                   G
 And jump out the windows to label the sun:
               D
 you're out of love
Bm                C                           
 You feel like a poet in the morning screaming:
G                      D
 I'm just a loser like God!



Am                                                             
 But it's the passion that keeps our hands together 
C            D
 during this great sleep
Am                              
 And the kid who pulls a gun
      C                G             D7
 will tell you what is fun until the ashes



C        D         C          D           C
 And our love roams through a vivid fantasy
        D              Em         D
 Please take me to the depths of sanity
C    D         C        D                   C
 The hate glows in your face when you can't sleep
           D             Em
 There's a war inside your dreams



C        D         C          D           C
 And our love roams through a vivid fantasy
        D              Em         D
 Please take me to the depths of sanity
C        D         C      D              C 
 And the hate glows as he pulls the iron fist
         D           Em 
 And you fall into a dream.

            
            
Suggest correction
Creating personal tab
Creating personal tab
You can edit any tab online and save it as your Personal.

You can edit, replace or remove any tab part or add personal notes – all changes will be seen only by you.

Personal tabs can be accessed anytime from any device, even offline.
Learn more »
Give kudos to tab author, rate the tab!
1 2 3 4 5
comments
print report bad tab
guest
You may want to rate the tab now too:
select rating
Wanna post a correction for this tab? Suggest correction