Oops, an error
Loading. Please wait.

So Peter Youve Become A Pirate tab

version 2
version 2

Whole song

15,588 views 1 this week
2 commentsread comments
1 2 3 4 5
x 7
add to favorites
×
Save as Personal and add changes to this tab that will be seen only by you. Learn more ›
×
You can save this tab as Personal to edit and correct it or add notes. All changes will be seen only by you. Learn more »
launch autoscroll
font size
0
reset
how to read this tab
guitar tuner
edit
Autoscroll
slow
fast
+/-
esc
set tempo
stop
[Intro]
e|-------------0-0-0-0--|
B|---3---3-----3-3-3-3--|
G|----2---2----2-2-2-2--|
D|------0------0-0-0-0--|
A|--2----------0-0-0-0--|
E|----------0--0-0-0-2--|

[Verse]
e|--0--0--0--|
B|--3--3--3--|
G|--2--2--2--|
D|--0--0--0--| x4
A|--2--0--0--|
E|-----x--3--|

[Chorus]
e|--0--0--0--0--|
B|--3--3--3--3--|
G|--2--2--2--2--|
D|--0--0--0--0--| x3
A|--0--2--0--0--|
E|--3-----x--3--|

[Pre Verse]
e|--------------|
B|--------------|
G|--4--7--------|
D|--4--7--5--5--| x2
A|--2--5--5--5--|
E|--------3--2--|

[Verse]
e|--0--0--|     e|--0--|
B|--3--3--|     B|--3--|
G|--2--2--|     G|--2--|
D|--0--0--| x2  D|--0--|
A|--2--0--|     A|--0--|
E|--x--x--|     E|--3--|

[Chorus]
e|--0--0--0--0--|
B|--3--3--3--3--|
G|--2--2--2--2--|
D|--0--0--0--0--| x3
A|--0--2--0--0--|
E|--3-----x--3--|

[Bridge]x2
e|--------------|    e|----------------|
B|--------------|    B|----------------|
G|--444-444444--|    G|--777-7766-777--|
D|--444-444444--| x2 D|--777-7777-777--| x2
A|--222-220202--|    A|--555-5555-777--|
E|--------------|    E|----------------|

[Next part of Bridge]
e|--------|    e|--0--|
B|--------|    B|--3--|
G|--4--7--|    G|--2--|
D|--4--7--| x2 D|--0--|
A|--2--5--|    A|--0--|
E|--------|    E|--3--|

[Chorus]
e|--0--0--0--0--|
B|--3--3--3--3--|
G|--2--2--2--2--|
D|--0--0--0--0--| x3
A|--0--2--0--0--|
E|--3-----x--3--|

[Outro]
e|-------------|
B|---3---3-----|
G|----2---2----|
D|------0------|
A|--2----------|
E|----------0--|

Another great song by these guys! i can't wait for them to come out with an album.
any questions just e-mail golflyfe3@hotmail.com





            
            
Suggest correction
Creating personal tab
Creating personal tab
You can edit any tab online and save it as your Personal.

You can edit, replace or remove any tab part or add personal notes – all changes will be seen only by you.

Personal tabs can be accessed anytime from any device, even offline.
Learn more »
comments
print report bad tab
2 comments total.
0 reply
6_months_newbie 10 Jan 05, 2010 07:33 AM

A little off but its pretty much perfect thnx for the great tab

0 reply
tlmesi 31 Jul 12, 2011 09:22 AM

I think that playing the chords again, plus a Gsus also works for the bridge instead of the power chords. its a hell of a lot easier and sounds the same as the power chords are the same notes as the chords.
so the bridge would go

e|--0--0--0--0|
B|--3--3--3--3|
G|--2--2--2--2|
D|--0--0--0--0|
A|--2--0--0--0|
E|-----x--3--2|

guest
Wanna post a correction for this tab? Suggest correction