Oops, an error
Loading. Please wait.
We have an official The Man Who Cant Be Moved tab made by UG professional guitarists. Check out the tab »
×

The Man Who Cant Be Moved tab

47,749 views 24 this week
3 commentsread comments
1 2 3 4 5
x 10
add to favorites
×
Save as Personal and add changes to this tab that will be seen only by you. Learn more ›
×
You can save this tab as Personal to edit and correct it or add notes. All changes will be seen only by you. Learn more »
launch autoscroll
font size
0
reset
how to read this tab
guitar tuner
edit
Autoscroll
slow
fast
+/-
esc
set tempo
stop
Author
hey, this is my first tab.
 ive changed some bits because i think this way is alot easier to play then the over tab 
ive also put the lyrics in to make it easier to follow.
dont now how to read tabs?
then feel free to email me.
email me any differences that could be made and such (:
bubbledude123@hotmail.co.uk.
please rate. (:
overall song order:

Main Riff x5
Chorus
Main Riff x3
Chorus
Bridge
Chorus x2
Main Riff.


intro :
e|-----------------------------------------|
B|-----------------------------------------|
G|-----------------------5--7------5--7----|   (the 5th -10th 8's can
D|---8--8------8--8-----8--8--8---8--8--8--|   be played as a 0 throughout.)
A|--5--5--5---5--5--5--6--6--6---6--6--6---|
E|-6--6--6---5--5--5-----------------------|

Going back to the corner where I first saw you,
Gonna camp in my sleeping bag I'm not gonna move,
e|-----------------------------------------|
B|-----------------------------------------|
G|-----------------------5--7------5--7----|
D|---8--8------8--8-----8--8--8---8--8--8--|
A|--5--5--5---5--5--5--6--6--6---6--6--6---|
E|-6--6--6---5--5--5-----------------------|

Got some words on cardboard got your picture in my hand,
Saying if you see this girl can you tell her where I am,
e|-----------------------------------------|
B|-----------------------------------------|
G|-----------------------5--7------5--7----|
D|---8--8------8--8-----8--8--8---8--8--8--|
A|--5--5--5---5--5--5--6--6--6---6--6--6---|
E|-6--6--6---5--5--5-----------------------|


(drums come in)
Some try to hand me money they don't understand,
I'm not...broke I'm just a broken hearted man,
e|-----------------------------------------|
B|-----------------------------------------|
G|-----------------------5--7------5--7----|
D|---8--8------8--8-----8--8--8---8--8--8--|
A|--5--5--5---5--5--5--6--6--6---6--6--6---|
E|-6--6--6---5--5--5-----------------------|

I know it makes no sense, but what else can I do,
How can I move on when I'm still in love with you...
e|-----------------------------------------|
B|-----------------------------------------|
G|-----------------------5--7------5--7----|
D|---8--8------8--8-----8--8--8---8--8--8--|
A|--5--5--5---5--5--5--6--6--6---6--6--6---|
E|-6--6--6---5--5--5-----------------------|


CHORUS.
(the above main riff can still be heard.. but here's the chords for the chorus.)
A#
e|--------------|
B|--1-----------|
G|--1-----------|
D|--2-----------|
A|--3-----------|
E|--------------|

F
e|--1-----------|
B|--1-----------| (f played twice.)
G|--0-----------|
D|--0-----------|
A|--2-----------|
E|--3-----------|

Cm (c minor)
e|--1-----------|
B|--2-----------|
G|--3-----------|
D|--3-----------|
A|--1-----------|
E|--------------|

x 4.
FITS IN WITH THE LYRICS LIKE THIS:
CHORUS:

A#                                               F
Cos if one day you wake up and find that you're missing me,
   F                                           Cm
And your heart starts to wonder where on this earth I can be,
 A#                                          F
Thinking maybe you'll come back here to the place that we'd meet,
  F                                      Cm
And you'd see me waiting for you on the corner of the street.
  A#            F
So I'm not moving...
        F         Cm
I'm not moving.

VERSE 2
same structure as verse one, like this:
(again it is easier to play the 5th -10th lots of 8's as a 0 )

intro to verse
e|-----------------------------------------|
B|-----------------------------------------|
G|-----------------------5--7------5--7----|
D|---8--8------8--8-----8--8--8---8--8--8--|
A|--5--5--5---5--5--5--6--6--6---6--6--6---|
E|-6--6--6---5--5--5-----------------------|

Policeman says son you can't stay here,
I said there's someone I'm waiting for if it's a day, a month, a year,
e|-----------------------------------------|
B|-----------------------------------------|
G|-----------------------5--7------5--7----|
D|---8--8------8--8-----8--8--8---8--8--8--|
A|--5--5--5---5--5--5--6--6--6---6--6--6---|
E|-6--6--6---5--5--5-----------------------|

Gotta stand my ground even if it rains or snows,
If she changes her mind this is the first place she will go.
e|-----------------------------------------|
B|-----------------------------------------|
G|-----------------------5--7------5--7----|
D|---8--8------8--8-----8--8--8---8--8--8--|
A|--5--5--5---5--5--5--6--6--6---6--6--6---|
E|-6--6--6---5--5--5-----------------------|


CHORUS (chords are up a bit ^ )
A#                                               F
Cos if one day you wake up and find that you're missing me,
   F                                           Cm
And your heart starts to wonder where on this earth I can be,
 A#                                          F
Thinking maybe you'll come back here to the place that we'd meet,
  F                                      Cm
And you'd see me waiting for you on the corner of the street.
  A#            F
So I'm not moving...
        F         Cm
I'm not moving.

(now on the second f coming up its played like this:)
e|--6-----------|
B|--5-----------|
G|--6-----------|
D|--3-----------|
A|--------------|
E|--------------|


  A#            F
I'm not moving...
        F         Cm
I'm not moving.


BRIDGE.
same pattern as the main riff, (its a lot easier then it looks ha ha)

|--------------------------------------------------------|
|-------3-------8----------------------------------------|
|---5--------------8-------10---10----------10---10------|
|--5---5--5----8--8--8----10---10---10-----10---10---10--|   x2
|-------------6--6--6----8----8----8------8----8----8----|
|-3---3--3-----------------------------------------------|

|---------------------|
|---------------------|
|---7--7------10--10--|
|--8--8--7---10--10---|    x4
|-6--6--6---8---8-----|
|---------------------|

|---------------------|
|---3--3------4--4----|
|--------3---------3--|
|--5--5------5--5-----|
|-3--3--3---3--3--3---|
|---------------------|


CHORUS (chords are up there ^)

A#                                               F
Cos if one day you wake up and find that you're missing me,
   F                                           Cm
And your heart starts to wonder where on this earth I can be,
 A#                                          F
Thinking maybe you'll come back here to the place that we'd meet,
  F                                      Cm
And you'd see me waiting for you on the corner of the street.
  A#            F
So I'm not moving...
        F         Cm
I'm not moving.


A#                                               F
Cos if one day you wake up and find that you're missing me,
   F                                           Cm
And your heart starts to wonder where on this earth I can be,
 A#                                          F
Thinking maybe you'll come back here to the place that we'd meet,
  F                                      Cm
And you'd see me waiting for you on the corner of the street.
  A#            F
So I'm not moving...
        F         Cm
I'm not moving.

OUTRO
(same as intro)

Going back to the corner where I first saw you,
Gonna camp in my sleeping bag not I'm not gonna move.
e|-----------------------------------------|
B|-----------------------------------------|
G|-----------------------5--7------5--7----|
D|---8--8------8--8-----8--8--8---8--8--8--|
A|--5--5--5---5--5--5--6--6--6---6--6--6---|
E|-6--6--6---5--5--5-----------------------|


thanks!

            
            
Suggest correction
Creating personal tab
Creating personal tab
You can edit any tab online and save it as your Personal.

You can edit, replace or remove any tab part or add personal notes – all changes will be seen only by you.

Personal tabs can be accessed anytime from any device, even offline.
Learn more »
comments
print report bad tab
3 comments total.
0 reply
riazdocrat 145 Mar 21, 2009 02:58 AM

finally, someone has got the intro right,ive been wanting to post the real intro if no one else did it. thanks.

nice work dude.

0 reply
buurrrd 50 Mar 23, 2009 07:44 AM

thaaankkk youuuuu !!! :D:D:D x

0 reply
Rightarmmusic 828 Oct 11, 2009 08:54 AM

Still haven't got the first bit of the Bridge right, though. I think it is:
--------------------------|--------------------------|
-----------8--------6-----|--------6-----------------|
--0-----0--------0-----0--|-----------------7--------|
-----8--------8-----------|-----8--------8--------8--|
--------------------------|--6--------6--------6-----|
--------------------------|--------------------------|

----------------------------|--------------------------|
----------------------------|--------4--------3--------|
--------7-------------------|-----------------------3--|
-----7--------7--10-----10--|-----5--------5-----------|
--8--------8---------8------|--3--------3--------3-----|
----------------------------|--------------------------|

Played twice in straight eights before going to the Ebmaj7 - F progression.

Oh, and the chords for the "I'm not moving" bit should be:
Bb (or A# if you prefer to call it that!) F Cm7 Eb

guest
You may want to rate the tab now too:
select rating
Wanna post a correction for this tab? Suggest correction