Oops, an error
Loading. Please wait.

We Cry bass

version 1
version 1

Whole song

Interactive

6,503 views 1 this week
no commentswrite comment
1 2 3 4 5
1 last vote to show rating
add to favorites
×
Save as Personal and add changes to this tab that will be seen only by you. Learn more ›
×
You can save this tab as Personal to edit and correct it or add notes. All changes will be seen only by you. Learn more »
launch autoscroll
font size
0
reset
guitar tuner
edit
Autoscroll
slow
fast
+/-
esc
set tempo
stop
Author
Tuning: Standard

Decent song, bass is easy, alot of sliding :).


-----------------------------------------------------------------------------

Notes marked with a * are the same note, just carry on with the riff. I put it in a 
time for easier reading :)

-----------------------------------------------------------------------------

Just making it clear. In the interlude, slide from the first note up to the second one, 
mute it, don't play it.

E.g:     --7/X(13)--   Slide from 7(first note) to 13 (second note) but mute 13 :). So 
hear the slide, but not the note at the end.

-----------------------------------------------------------------------------


Main Riff - Verse/Chorus:
G|---------------------------------------------|
D|--8*~~--8p7~---7/13~--13p12~~---12/8~~--8p7~-|
A|---------------------------------------------|
E|---------------------------------------------|

G|---------------------------------------------|
D|--7/1~---1h3~----3/8*------------------------|
A|---------------------------------------------|
E|---------------------------------------------|

Post Chorus:

G|---------------------------------------------|
D|8~~-7~~-5~-3~-1~-----------------------------|
A|-----------------4~--------------------------|
E|---------------------------------------------|


Interlude:
G|--------------------------------------------------|
D|--X*----8p7~---7/X(13)--13p12~~---12/X(8)~~--8p7~-|
A|--------------------------------------------------|
E|--------------------------------------------------|

G|---------------------------------------------|
D|--7/1~---1h3~---3----------------------------|
A|---------------------------------------------|
E|---------------------------------------------|

G|---------------------------------------------|
D|----(rest)----7/13~--13p12~~---12/8~~--8p7~--|
A|---------------------------------------------|
E|---------------------------------------------|

G|---------------------------------------------|
D|--7/1~---1h3~--3-----------------------------|
A|---------------------------------------------|
E|---------------------------------------------|


Sounds about right, i did it rather quickly, but i think its 99% accurate.

Any comments, suggestions or changes - throw me some feedback at:

bradley_25@hotmail.co.uk

Thanks, have fun :)

            
            
Suggest correction
Creating personal tab
Creating personal tab
You can edit any tab online and save it as your Personal.

You can edit, replace or remove any tab part or add personal notes – all changes will be seen only by you.

Personal tabs can be accessed anytime from any device, even offline.
Learn more »
Give kudos to tab author, rate the tab!
1 2 3 4 5
comments
print report bad tab
guest
You may want to rate the tab now too:
select rating
Wanna post a correction for this tab? Suggest correction