Oops, an error
Loading. Please wait.

Baby Its You bass

version 1
version 1

Whole song

Interactive

145 views 3 this week
no commentswrite comment
1 2 3 4 5
3 more votes to show rating
add to favorites
×
Save as Personal and add changes to this tab that will be seen only by you. Learn more ›
×
You can save this tab as Personal to edit and correct it or add notes. All changes will be seen only by you. Learn more »
launch autoscroll
font size
0
reset
guitar tuner
edit
Autoscroll
slow
fast
+/-
esc
set tempo
stop
Author
Difficulty
BABY IT'S YOU (Bassline)

As recorded by The Shirelles
(From the 1962 Album BABY IT'S YOU)

Words and Music by Burt Bacharach, Mack David & Barney Williams

Transcribed by Slowhand


Gtr I (E A D G) - 'Bass'


 Intro
  Q=112
 4/4
  Gtr I
  Q  Q  Q  E E   Q  Q  Q  Q    Q  Q  Q  E E
|--------------|-------------|--------------|
|--------------|-------------|--------------|
|-1-----1--1-1-|-------------|-1-----1--1-1-|
|--------------|-3-----3--3--|--------------|


  Q  Q  Q  Q    Q  Q  Q  E E   q  Q  H
|-------------|--------------|------------||
|-------------|--------------|------------||
|-------------|-1-----1--1-1-|------------||
|-3-----3--3--|--------------|-3----------||


   1st & 2nd Verses
    Q  Q  Q  Q    Q  Q  Q  Q    Q  Q  Q  Q    Q  Q  Q  Q
||--------------|-------------|-------------|-------------|
||o-1-----1-----|-1-----1--3--|-------------|----------0--|
||o-------------|-------------|-1-----------|-1-----1-----|
||--------------|-------------|-------1-----|-------------|


  Q  Q  Q  Q    Q  Q  Q  Q    Q  Q  Q  Q    Q  Q  E E E E
|-------------|-------------|-------------|----------------||
|-1-----------|-1--------1--|-------------|----------------||
|-------1-----|-------1-----|-1-----------|-1-----1-3-1-0--||
|-------------|-------------|-------1-----|----------------||


 Chorus
  $
  Q  Q  Q  Q    Q  Q  Q  Q    Q  Q  Q  Q    Q  Q  Q  Q
|-------------|-------------|-------------|--------------|
|-------------|-------------|-------------|--------------|
|-------5-----|----------1--|-3-----------|-3--------3---|
|-3-----------|-3-----3-----|-------3-----|-------3------|


  Q  Q  Q  Q    Q  Q  Q  E E   Q  Q  Q  Q    Q.   E Q  E E
|-------------|--------------|-------------|----------------|
|-------------|-------0----0-|-1--------1--|-3------3-------|
|-1--------1--|----------1---|-------1-----|------3----5-3--|
|-------1-----|-3------------|-------------|----------------|


                                               To Coda
  q  Q  H      Q  Q  Q  Q    Q  Q  Q  Q    Q  Q  Q  Q
|------------|-------------|-------------|--------------|
|------------|-------------|-------------|--------------|
|------------|-1--------1--|-------5-----|-1--------1---|
|-1----------|-------1-----|-3--------3--|-------1------|


                                Organ Solo
  1.             2.
  Q  Q  Q  Q      Q  Q  Q  Q     Q  Q  Q  Q    Q  Q  Q  Q
|--------------||-------------||-------------|--------------|
|-------------o||-------------||-1-----1-----|-1-----1--3---|
|-------5-----o||-------5-----||-------------|--------------|
|-3--------3---||-3--------3--||-------------|--------------|


  Q  Q  Q  Q    Q  Q  Q  Q    Q  Q  Q  Q    Q  Q  Q  Q
|-------------|-------------|-------------|--------------|
|-------------|----------0--|-1-----------|-1--------1---|
|-1-----------|-1-----1-----|-------1-----|-------1------|
|-------1-----|-------------|-------------|--------------|


                                 Outro
                  D.S. al Coda &
  Q  Q  Q  Q    Q  Q  E E E E     Q  Q  Q  Q
|-------------|----------------||-------------|
|-------------|----------------||-------------|
|-1-----------|-1-----1-3-1-0--||-------5-----|
|-------1-----|----------------||-3--------3--|


   Outro
    Q  Q  Q  E E   Q  Q  Q  Q    3x
||---------------|---------------||
||o--------------|--------------o||
||o-1-----1--1-1-|--------------o||
||---------------|-3-----3--3----||


Duration Legend
---------------
W - whole; H - half; Q - quarter; E - 8th; S - 16th; T - 32nd; X - 64th; a - acciaccatura
+ - note tied to previous; . - note dotted; .. - note double dotted
Uncapitalized letters represent notes that are staccato (1/2 duration)
Irregular groupings are notated above the duration line
Duration letters will always appear directly above the note/fret number it represents the
duration for.  Duration letters with no fret number below them represent rests.  Multi-
bar rests are notated in the form Wxn, where n is the number of bars to rest for.  Low
melody durations appear below the staff

Tablature Legend
----------------
 h   - hammer-on
 p   - pull-off
 b   - bend
 pb  - pre-bend
 r   - bend release (if no number after the r, then release immediately)
 /\  - slide into or out of (from/to "nowhere")
 s   - legato slide
 S   - shift slide
  - natural harmonic
[n]  - artificial harmonic
n(n) - tapped harmonic
 ~   - vibrato
 tr  - trill
 T   - tap
 TP  - trem. picking
 PM  - palm muting
\n/  - tremolo bar dip; n = amount to dip
 \n  - tremolo bar down
 n/  - tremolo bar up
/n\  - tremolo bar inverted dip
 =   - hold bend; also acts as connecting device for hammers/pulls
 <>  - volume swell (louder/softer)
 x   - on rhythm slash represents muted slash
 o   - on rhythm slash represents single note slash

Misc Legend
-----------
 |  - bar
||  - double bar
||o - repeat start
o|| - repeat end
*|  - double bar (ending)
 :  - bar (freetime)
 $  - Segno
 &  - Coda
Tempo markers -  = BPM(8/16=s8/s16), where s8 = swing 8ths, s16 = swing 16ths




Sha-la-la-la la-ah, sha-la-la-la la-ah, sha-la-la la.)

(Sha-la-la la-ah.)

It's not the way you smile that touched my heart.
(Sha-la-la-la-la.)
It's not the way you kiss that tears me apart.

Wo-ho-oh, many, many, many nights roll by.
I sit alone at home and cry over you.
What can I do? I can't help myself.
'Cause baby it's you (sha-la-la-la la-ah).
Baby it's you. (sha-la-la-la la-ah).

(Sha-la-la-la-la.)

You should hear what they say about you.
"Cheat, cheat."
(Sha-la-la-la-la.)
They say, they say you never, never, never been true.
(Cheat, cheat.)

Wo-ho, it doesn't matter what they say.
I know I'm gonna love you any old way.
What can I do when it's true?
Don't want nobody, nobody,
'Cause baby it's you (sha-la-la-la la-ah).
Baby it's you (sha-la-la-la la-ah).
[Instrumental break.]

Wo-ho hoh-yeah, many, many, many nights roll by.
I sit alone at home and cry over you.
What can I do? I can't help myself.
'Cause baby it's you (sha-la-la-la la-ah).
Baby it's you. (sha-la-la-la la-ah).

Don't-a leave me alone.
(Sha-la-la-la la-ah.)
Come on home.
[Fade.]
(Sha-la-la-la la-ah.)
Baby it's you.
(Sha-la-la-la la-ah.)
Baby...

            
            
Suggest correction
Creating personal tab
Creating personal tab
You can edit any tab online and save it as your Personal.

You can edit, replace or remove any tab part or add personal notes – all changes will be seen only by you.

Personal tabs can be accessed anytime from any device, even offline.
Learn more »
Give kudos to tab author, rate the tab!
1 2 3 4 5
comments
print report bad tab
guest
You may want to rate the tab now too:
select rating
Wanna post a correction for this tab? Suggest correction