Oops, an error
Loading. Please wait.

Laid To Rest tab

version 1
version 1

Whole song

Interactive

6,748 views 1 this week
10 commentsread comments
1 2 3 4 5
x 8
add to favorites
×
Save as Personal and add changes to this tab that will be seen only by you. Learn more ›
×
You can save this tab as Personal to edit and correct it or add notes. All changes will be seen only by you. Learn more »
launch autoscroll
font size
0
reset
how to read this tab
guitar tuner
edit
Autoscroll
slow
fast
+/-
esc
set tempo
stop
Song: Laid to Rest
Artist: The Showdown

Tuning: D B C F A D

well this took me a while to get but i finaly have it all, including the solo! so its 
there
email me at myheartscreamsforhim777@hotmail.com to tell me what you think! later

/ = slide
* = harmonic
h = hammer
p = pull off
b = bend

intro A

d|--3--------3-----3-----------3-----3-----------3-----3-------------3-------|
a|--------0-----0-----3-----3-----3-----0-----0-----0-----0h1-----1-----1----|
f|-----0-----------------0-----------------0-------------------0-------------|
C|--2--------------2-----------------0-----------------0---------------------|
B|---------------------------------------------------------------------------|
D|---------------------------------------------------------------------------|

d|--3-----------3-----3---------------3---3---------7---------12*------------|
a|-----1-----1-----1-----0h1h3-----3---------0---------5------12*------------|
f|--------0---------------------0---------------0---------0------------------|
C|---------------------------------------------------------------------------|
B|--3-----------------0------------------------------------------------------|
D|----------------------------------------0-------------------12*------------|

intro B

d|--3-----------3-----3-----------3-----3-----------3-----3-------------3-------|
a|-----0-----0-----0-----3-----3-----3-----0-----0-----0-----0h1-----1-----1----|
f|--------0-----------------0-----------------0-------------------0-------------|
C|--2-----------------2-----------------0-----------------0---------------------|
B|------------------------------------------------------------------------------|
D|------------------------------------------------------------------------------|

d|--3-----------3-----3---------------3---3------------12-----------------12*--------|
a|-----1-----1-----1-----0h1h3-----3---------0-----12-----------------12*-----12*----|
f|--------0---------------------0---------------0----------0------12*-------------0--|
C|-----------------------------------------------------------------------------------|
B|--3-----------------0--------------------------------------------------------------|
D|----------------------------------------0-------------------12*--------------------|


verse 1

d|--7p0---------------12p0---------------5p0---------------3p0---------------------------|
a|-------0-----0------------0-----0-----------0-----0-----------0-----0------------------|
f|----------0-----0------------0-----0-----------0-----0-----------0-----0---------------|
C|---------------------------------------------------------------------------------------|
B|---------------------------------------------------------------------------------------|
D|--0-----------------0------------------0-----------------0-----------------------------|

d|--5--------5---------7--------7-----------------0-----------------0--------------------|
a|--7-----7-----7------8-----8-----8-----------3-----3-----------3-----3-----------------|
f|-----0-----------0------0-----------0-----0-----------0-----0-----------0--------------|
C|---------------------------------------------------------------------------------------|
B|---------------------------------------3-----------------3-----------------------------|
D|--0------------------0-----------------------------------------------------------------|

d|--7p0---------------12p0---------------5p0---------------3p0---------------------------|
a|-------0-----0------------0-----0-----------0-----0-----------0-----0------------------|
f|----------0-----0------------0-----0-----------0-----0-----------0-----0---------------|
C|---------------------------------------------------------------------------------------|
B|---------------------------------------------------------------------------------------|
D|--0-----------------0------------------0-----------------0-----------------------------|


chorus

d|-----------0-----------------0-----------------0-----------------0---------------------|
a|--------3-----3-----------3-----3-----------7-----7-----------8-----8------------------|
f|-----0-----------0-----0-----------0-----0-----------0-----0-----------0---------------|
C|---------------------------------------------------------------------------------------|
B|--3-----------------3-----------------0-----------------0------------------------------|
D|---------------------------------------------------------------------------------------|

d|-----------0-----------------0-----------------0-----------------2----------------------|
a|--------8-----8-----------7-----7-----------3-----3-----------3-----3-------------------|
f|-----0-----------0-----0-----------0-----0-----------0-----0-----------0----------------|
C|--------------------------------------------------------0-------------------------------|
B|--7-------------------------------------------------------------------------------------|
D|--------------------0-----------------3-------------------------------------------------|


intro B

d|--3-----------3-----3-----------3-----3-----------3-----3-------------3-------|
a|-----0-----0-----0-----3-----3-----3-----0-----0-----0-----0h1-----1-----1----|
f|--------0-----------------0-----------------0-------------------0-------------|
C|--2-----------------2-----------------0-----------------0---------------------|
B|------------------------------------------------------------------------------|
D|------------------------------------------------------------------------------|

d|--3-----------3-----3---------------3---3------------12-----------------12*--------|
a|-----1-----1-----1-----0h1h3-----3---------0-----12-----------------12*-----12*----|
f|--------0---------------------0---------------0----------0------12*-------------0--|
C|-----------------------------------------------------------------------------------|
B|--3-----------------0--------------------------------------------------------------|
D|----------------------------------------0-------------------12*--------------------|

intro A

d|--3--------3-----3-----------3-----3-----------3-----3-------------3-------|
a|--------0-----0-----3-----3-----3-----0-----0-----0-----0h1-----1-----1----|
f|-----0-----------------0-----------------0-------------------0-------------|
C|--2--------------2-----------------0-----------------0---------------------|
B|---------------------------------------------------------------------------|
D|---------------------------------------------------------------------------|

d|--3-----------3-----3---------------3---3---------7---------12*------------|
a|-----1-----1-----1-----0h1h3-----3---------0---------5------12*------------|
f|--------0---------------------0---------------0---------0------------------|
C|---------------------------------------------------------------------------|
B|--3-----------------0------------------------------------------------------|
D|----------------------------------------0-------------------12*------------|


verse 2

d|--7p0---------------12p0---------------5p0---------------3p0---------------------------|
a|-------0-----0------------0-----0-----------0-----0-----------0-----0------------------|
f|----------0-----0------------0-----0-----------0-----0-----------0-----0---------------|
C|---------------------------------------------------------------------------------------|
B|---------------------------------------------------------------------------------------|
D|--0-----------------0------------------0-----------------0-----------------------------|

d|--5--------5---------7--------7--------|-----------0-----------------0-----------------|
a|--7-----7-----7------8-----8-----8-----|--------3-----3-----------3-----3--------------|
f|-----0-----------0------0-----------0--|-----0-----------0-----0-----------0-----------|
C|---------------------------------------|--------------------------------------x2-------|
B|---------------------------------------|--3-----------------3--------------------------|
D|--0------------------0-----------------|-----------------------------------------------|

d|--7p0---------------12p0---------------5p0---------------3p0---------------------------|
a|-------0-----0------------0-----0-----------0-----0-----------0-----0------------------|
f|----------0-----0------------0-----0-----------0-----0-----------0-----0---------------|
C|---------------------------------------------------------------------------------------|
B|---------------------------------------------------------------------------------------|
D|--0-----------------0------------------0-----------------0-----------------------------|

d|--5--------5---------7--------7---------|
a|--7-----7-----7------8-----8-----8------|
f|-----0-----------0------0-----------0---|
C|----------------------------------------|
B|----------------------------------------|
D|--0------------------0------------------|


chorus

d|-----------0-----------------0-----------------0-----------------0---------------------|
a|--------3-----3-----------3-----3-----------7-----7-----------8-----8------------------|
f|-----0-----------0-----0-----------0-----0-----------0-----0-----------0---------------|
C|---------------------------------------------------------------------------------------|
B|--3-----------------3-----------------0-----------------0------------------------------|
D|---------------------------------------------------------------------------------------|

d|-----------0-----------------0-----------------0-----------------2-----------12*-------|
a|--------8-----8-----------7-----7-----------3-----3-----------3-----3--------12*-------|
f|-----0-----------0-----0-----------0-----0-----------0-----0-----------0---------------|
C|--------------------------------------------------------0------------------------------|
B|--7------------------------------------------------------------------------------------|
D|--------------------0-----------------3--------------------------------------12*-------|

bridge

d|---------------------------------------------------------------------------------------|
a|---------------------------------------------------------------------------------------|
f|---------------------------------------------------------------------------------------|
C|--2------2--2--2---2-------2--2--2---2-------2--2--2---2-------2--2--2-----------------|
B|--2------2--2--2---2-------2--2--2---2-------2--2--2---2-------2--2--2-----------------|
D|--0------0--0--0---0-------0--0--0---0-------0--0--0---0-------0--0--0-----------------|

d|---------------------------------------------------------------------------------------|
a|---------------------------------------------------------------------------------------|
f|--5------5--5--5---5-------5--5--5---5-------5--5--5---5-------------------------------|
C|--5------5--5--5---5-------5--5--5---5-------5--5--5---5-------------------------------|
B|--3------3--3--3---3-------3--3--3---3-------3--3--3---3------2--5--4------------------|
D|--------------------------------------------------------------0--3--2------------------|
        repeat it 2 times

solo

d|---------------------------------------------------------------------------------------|
a|---------------------------------------------------------------------------------------|
f|--7/14/14p12--11p12p11------11---------------------------------11---12-----------------|
C|------------------------14------14--12h14--12------12---12h14--------------------------|
B|-----------------------------------------------15--------------------------------------|
D|---------------------------------------------------------------------------------------|

d|---------------------------------------------------------------------------------------|
a|------------------------------5/(15)--15-15-15-15-15-15-13-13-13-13-13-13--------------|
f|--14b--(14)--12h14--12--(12)-----------------------------------------------------------|
C|---------------------------------------------------------------------------------------|
B|---------------------------------------------------------------------------------------|
D|---------------------------------------------------------------------------------------|

d|---------------------------------------------------------------------------------------|
a|--12-12-12-12-12-12-10-10-10-10-10-10--------------------------------------------------|
f|--------------------------------------12-12-12-12-12-12--------------------------------|
C|---------------------------------------------------------------------------------------|
B|---------------------------------------------------------------------------------------|
D|---------------------------------------------------------------------------------------|

d|--12---------------------------------------------------------------------------------15-17-19--|
a|------15--13--12------------------------------------------------------------15-17-19-----------|
f|------------------14--12--11------------------------------11/12--14/16--17---------------------|
C|------------------------------14--12--------------12--14---------------------------------------|
B|--------------------------------------15--14--15-----------------------------------------------|
D|-----------------------------------------------------------------------------------------------|

d|--19b--(19)--19------------------------------------------------------------------------|
a|----------------------------------------------------------15b--(15)--------------------|
f|------------------0h2-3--4h5--4h5p4----------------------------------------------------|
C|-------------------------------------7--5--7--5--4h5-4/5-------------------------------|
B|---------------------------------------------------------------------------------------|
D|---------------------------------------------------------------------------------------|

d|----------------------------------------------------------------------------------------|
a|--12h13p12------12----------------------------------------------------------------------|
f|------------14------12--14--11h12p11------11-----11-------------------------------------|
C|--------------------------------------14-----12------12/14--(14)/12---------------------|
B|---------------------------------------------------------------------15--14--15p14------|
D|------------------------------------------------------------------------------------15--|


chorus

for the continued chorus just play the regular chorus but strum it dont pick it, you can figure
the strumming out by listening to the song or just make up your own lol.

ending chorus

d|---------------------------------------------------------------------------------------------|
a|---------------------------------------------------------------------------------------------|
f|--7---4--------------------------------------------------------------------------------------|
C|--5---2--------------------------------------------------------------------------------------|
B|--3---0------------------------------------2-2-2-2-2-2---------------------------2-2-2-2-2-2-|
D|---------0--17/0--0-0-0-0-0-0-0-0-0-0-0-0--0-0-0-0-0-0--0-0-0-0-0-0-0-0-0-0-0-0--0-0-0-0-0-0-|

piano ending on the guitar

d|--7---7---------------------------7-------7----------8---------------------------------------|
a|--8---8---10---8---8------8---10--8-------8-------------12--10--8------8---------------------|
f|----------11---9---9------9---11-------------10---8----------------11------------------------|
C|---------------------------------------------11---9------------------------------------------|
B|--7----------------7------7------------------------------------------------------------------|
D|-----------------------------------------------------8---------------------------------------|

d|-------------7-------7-----------8-----------------------------------------|
a|----8---10---8-------8---------------12--10--8------8---8------------------|
f|----9---11--------------10---8------------------11------9------------------|
C|------------------------11---9---------------------------------------------|
B|----7---------------------------------------------------7------------------|
D|---------------------------------8-----------------------------------------|

            
            
Suggest correction
Creating personal tab
Creating personal tab
You can edit any tab online and save it as your Personal.

You can edit, replace or remove any tab part or add personal notes – all changes will be seen only by you.

Personal tabs can be accessed anytime from any device, even offline.
Learn more »
comments
print report bad tab
10 comments total. Showing first comments.
0 reply
mattwilham 241 Jul 21, 2006 09:56 PM

wow..great tab man. this sounds perfect. great job

0 reply
mattwilham 241 Jul 21, 2006 10:03 PM

oh, the only thing..on the solo, where you have it tremelo picking 15, 13, etc...it should be:

d|--------------------------------|
a|-15--13--12--10--13--12--10-----|
f|----------------------------12--|

0 reply
ice_wiz 21 Jan 22, 2007 01:38 PM

Plaigirism, right out of the book

guest
You may want to rate the tab now too:
select rating
Wanna post a correction for this tab? Suggest correction