Oops, an error
Loading. Please wait.

Lights tab

886 views 3 this week
1 commentread comment
1 2 3 4 5
3 more votes to show rating
add to favorites
×
Save as Personal and add changes to this tab that will be seen only by you. Learn more ›
×
You can save this tab as Personal to edit and correct it or add notes. All changes will be seen only by you. Learn more »
launch autoscroll
font size
0
reset
how to read this tab
guitar tuner
edit
Autoscroll
slow
fast
+/-
esc
set tempo
stop
Riff (Repeat for whole song - Guitar 1)
e----------------|----------------|--------------|-----------------|
B----------------|----------------|--------------|-----------------|
G----------------|----------------|--------------|-----------------|
D----------------|----------------|--------------|-----------------|
A----------------|----------------|--------------|-----------------|
E-7-7-0-7--0-7-8-|-5-5-0-5--0-5-7-|-8-8-0-8--0-8-|-7-7-0-7-7-0-7-0-|

Chords (Power and distorted - Guitar 2)

 B                  A               C              A (!!!!) 


And here it comes the way…:


B                      A  
The lights shine clear through the sodium haze
C                            A  
The night draws near and the daylight fades
B
Ignore the voices
A
Discard the day
C				A
For the brand new darkness for the bright new way
Hit

B		 A	
There have been better plans
C			    A
But none that I could ever understand
B		A
Emerald signal the green on black
C			 A
The lights say move say never look back and so 
B		     A
I find another place that I've never been seen
C		    A	
Find another place where the red turns green
B			    A	
Where the emerald glistens through the darkness again
C			    A	
Where the emerald glistens through the rain

The lights shine clear through the sodium haze
The night draws near and the daylight fades
But there's a voice in the distance quiet and clear 
saying something that I never ever wanted to hear

There have been better plans
But none that I could ever understand
I see the emerald see the signal see the green on black
I see the lights say move say never look back
And so I find another place that I'll never be seen
Find another place where the red turns green
Where the emerald glistens through the darkness again
Where the emerald glistens through the rain rain rain
And I'm happy here in the rain
In the rain	
Through the emerald glistens 
In the rain

            
            
Suggest correction
Creating personal tab
Creating personal tab
You can edit any tab online and save it as your Personal.

You can edit, replace or remove any tab part or add personal notes – all changes will be seen only by you.

Personal tabs can be accessed anytime from any device, even offline.
Learn more »
Give kudos to tab author, rate the tab!
1 2 3 4 5
comments
print report bad tab
1 comment total.
0 reply
Evan Von Himmel 291 May 22, 2007 12:13 AM

Ok, I was wrong on riff. this is the right one:
e----------------|----------------|----------------|----------------
B----------------|----------------|----------------|----------------
G----------------|----------------|----------------|----------------
D----------------|----------------|----------------|----------------
A----------------|----------------|----------------|----------------
E-7-7-0-7--0-7-8-|-5-5-0-5--0-5-7-|-8-8-0-8--0-8-7-|-5-5-0-5--0-5-7-


And a tip:
you can play the song with one guitar, just playing this:

e----------------|----------------|--------------------|----------------
B----------------|----------------|--------------------|----------------
G----------------|----------------|--------------------|----------------
D-9-9---9----9-10|-7-7---7----7-9-|--------------------|-7-7---7----7-9-
A-9-9---9----9-10|-7-7---7----7-9-|-10-10---10----10-9-|-7-7---7----7-9-
E-7-7-0-7--0-7--8|-5-5-0-5--0-5-7-|--8--8-0--8--0--8-7-|-5-5-0-5--0-5-7-


Enjoy!

guest
You may want to rate the tab now too:
select rating
Wanna post a correction for this tab? Suggest correction