Oops, an error
Loading. Please wait.

Children Of December tab

version 1
version 1

Whole song

1,391 views 1 this week
1 commentread comment
1 2 3 4 5
3 more votes to show rating
add to favorites
×
Save as Personal and add changes to this tab that will be seen only by you. Learn more ›
×
You can save this tab as Personal to edit and correct it or add notes. All changes will be seen only by you. Learn more »
launch autoscroll
font size
0
reset
how to read this tab
guitar tuner
edit
Autoscroll
slow
fast
+/-
esc
set tempo
stop
Difficulty
intermediate
Just a note:
    This is a great song.  Most of the sound comes from the bass.  This is all I've got.
Kinda hard to hear with all the great bass.  In a live video, it looked like Brad
higher notes, but he's probably in an alternate tuning....or maybe I'm just wrong.  But 
I'm still learning to tab by ear, so I'm hoping this will be a sort of start for someone
can tab it properly.  So give it a try and let me know of any corrections you think 
be made, or send me your version at at245am@aol.com .  Thanks guys, happy playing.

This seems to be the main verse chord, with some higher string variations.

E|--7-------|
B|--7-------|
G|--7-------|
D|--7-------|   For the chime part, try to play just G, B, and E.
A|--5-------|
E|--5-------|

If you want to play just the chime-sounding bass part:

B|--77---77------|
G|-----77---77---|  Follow that with 2 quick strums of the G and B strings as you can hear.

Chorus riff

E|------------------------------------------------------------------|
B|------------------------------------------------------------------|
G|-9/11-9-7-9/11-9-7--at end of chorus add  9~. --------------------|
D|------------------------------------------------------------------|
A|------------------------------------------------------------------|
E|------------------------------------------------------------------|

If you want to play chords, just look at that as one of the 5th notes...the chords would be

E|--9/11--9--7--9/11--9--7---|
B|--9/11--9--7--9/11--9--7---|
G|--9/11--9--7--9/11--9--7---|
D|--9/11--9--7--9/11--9--7---|
A|--7/9---7--5--7/9---7--5---|
E|--7/9---7--5--7/9---7--5---|

For the solo, play with effects on...I'm not sure about the notes, so as long as you can
in key, you should be alright.

For the outro, return the main chord.

            
            
Suggest correction
Creating personal tab
Creating personal tab
You can edit any tab online and save it as your Personal.

You can edit, replace or remove any tab part or add personal notes – all changes will be seen only by you.

Personal tabs can be accessed anytime from any device, even offline.
Learn more »
Give kudos to tab author, rate the tab!
1 2 3 4 5
comments
print report bad tab
1 comment total.
0 reply
CurlyBash 16 Jan 20, 2009 02:50 PM

i dont know enough about music to play this, but it looks spot on... if that makes sense.

anyway, very good tab, thanks man

guest
Wanna post a correction for this tab? Suggest correction