Oops, an error
Loading. Please wait.

So Tough tab

269 views 1 this week
no commentswrite comment
1 2 3 4 5
3 more votes to show rating
add to favorites
×
Save as Personal and add changes to this tab that will be seen only by you. Learn more ›
×
You can save this tab as Personal to edit and correct it or add notes. All changes will be seen only by you. Learn more »
launch autoscroll
font size
0
reset
how to read this tab
guitar tuner
edit
Autoscroll
slow
fast
+/-
esc
set tempo
stop
ARTIST: The Slits
SONG: "So Tough"
ALBUM: Cut (1979)



TUNING: Standard



GUITAR: Viv Albertine



INTRO:
Guitar L
e|------------------------------------------------------------------------------------------------||
B|------------------------------------------------------------------------------------------------||
G|------------------------------------------------------------------------------------------------|| x 4
D|------------------------------------------------------------------------------------------------||
A|------------------------------------------------------------------------------------------------||
E|------------------------------------------------------------------------------------------------||
+
e|-------------------------------------------5--#-|
B|-------------------------------------------6--#-|
G|-------------------------------------------5--#-|
D|------------------------------------------------|
A|------------------------------------------------|
E|------------------------------------------------|
|
|
|
INTRO:
Guitar R
e|------------------------------------------------------------------------------------------------||
B|------------------------------------------------------------------------------------------------||
G|------------------------------------------------------------------------------------------------|| x 4
D|------------------------------------------------------------------------------------------------||
A|------------------------------------------------------------------------------------------------||
E|------------------------------------------------------------------------------------------------||
+
e|------------------------------------------------|
B|------------------------------------------------|
G|------------------------------------------------|
D|------------------------------------------------|
A|------------------------------------------------|
E|------------------------------------------------|



VERSE I:
Guitar L
e|-5--------5--5-----5--#--------------------5--#--5--------5--5-----5--#--------------------5--#-||
B|-6--------6--6-----6--#--------------------6--#--6--------6--6-----6--#--------------------6--#-||
G|-5--------5--5-----5--#--------------------5--#--5--------5--5-----5--#--------------------5--#-|| x 3
D|------------------------------------------------------------------------------------------------||
A|------------------------------------------------------------------------------------------------||
E|------------------------------------------------------------------------------------------------||
+
e|-5--------5--5-----5--#--------------------5--#--5--------5--5-----5--#--------5-----7----------|
B|-6--------6--6-----6--#--------------------6--#--6--------6--6-----6--#--------6-----8----------|
G|-5--------5--5-----5--#--------------------5--#--5--------5--5-----5--#--------5-----7----------|
D|------------------------------------------------------------------------------------------------|
A|------------------------------------------------------------------------------------------------|
E|------------------------------------------------------------------------------------------------|
+
e|------------------------------------------------------------------------------------------------|
B|------------------------------------------------------------------------------------------------|
G|------------------------------------------------------------------------------------------------|
D|------------------------------------------------------------------------------------------------|
A|------------------------------------------------------------------------------------------------|
E|------------------------------------------------------------------------------------------------|
|
|
|
VERSE I:
Guitar R
e|-------------------------------5-----x-----5--#--------------------------------0-----5-----#----||
B|-------------------------------6-----x-----6--#--------------------------------0-----6-----#----||
G|-------------------------------7-----x-----7--#--------------------------------------7-----#----|| x 3
D|-------------------------------7-----x-----7--#-------------------------------------------------||
A|------------------------------------------------------------------------------------------------||
E|------------------------------------------------------------------------------------------------||
+
e|-------------------------------5-----x-----5--#--------------------------------5-----7----------|
B|-------------------------------6-----x-----6--#--------------------------------6-----8----------|
G|-------------------------------7-----x-----7--#--------------------------------5-----7----------|
D|-------------------------------7-----x-----7--#-------------------------------------------------|
A|------------------------------------------------------------------------------------------------|
E|------------------------------------------------------------------------------------------------|
+
e|------------------------------------------------------------------------------------------------|
B|------------------------------------------------------------------------------------------------|
G|------------------------------------------------------------------------------------------------|
D|------------------------------------------------------------------------------------------------|
A|------------------------------------------------------------------------------------------------|
E|------------------------------------------------------------------------------------------------|



CHORUS I:
Guitar L
e|-7--7--7--7--7--7--7--7--9--9--9--9--9--9--9--9--#----------------------------------------------||
B|-8--8--8--8--8--8--8--8--10-10-10-10-10-10-10-10-#----------------------------------------------||
G|-7--7--7--7--7--7--7--7--9--9--9--9--9--9--9--9--#----------------------------------------------|| x 4
D|------------------------------------------------------------------------------------------------||
A|------------------------------------------------------------------------------------------------||
E|------------------------------------------------------------------------------------------------||
+
e|------------------------------------------------|
B|------------------------------------------------|
G|------------------------------------------------|
D|------------------------------------------------|
A|------------------------------------------------|
E|------------------------------------------------|
|
|
|
CHORUS I:
Guitar R
e|-x-----------------------------------------------------8-----x-----9-----x-----10----x-----11---||
B|-x-----------------------------------------------------8-----x-----9-----x-----10----x-----11---||
G|-x-----------------------------------------------------9-----x-----10----x-----11----x-----12---|| x 4
D|-x-----------------------------------------------------10----x-----11----x-----12----x-----13---||
A|------------------------------------------------------------------------------------------------||
E|------------------------------------------------------------------------------------------------||
+
e|-x-----8-----x-----9-----x-----10----x-----11---|
B|-x-----8-----x-----9-----x-----10----x-----11---|
G|-x-----9-----x-----10----x-----11----x-----12---|
D|-x-----10----x-----11----x-----12----x-----13---|
A|------------------------------------------------|
E|------------------------------------------------|



VERSE II:
Guitar L
e|-5--------5--5-----5--#--------------------5--#--5--------5--5-----5--#--------------------5--#-||
B|-6--------6--6-----6--#--------------------6--#--6--------6--6-----6--#--------------------6--#-||
G|-5--------5--5-----5--#--------------------5--#--5--------5--5-----5--#--------------------5--#-|| x 3
D|------------------------------------------------------------------------------------------------||
A|------------------------------------------------------------------------------------------------||
E|------------------------------------------------------------------------------------------------||
+
e|-5--------5--5-----5--#--------------------5--#--5--------5--5-----5--#--------5-----7----------|
B|-6--------6--6-----6--#--------------------6--#--6--------6--6-----6--#--------6-----8----------|
G|-5--------5--5-----5--#--------------------5--#--5--------5--5-----5--#--------5-----7----------|
D|------------------------------------------------------------------------------------------------|
A|------------------------------------------------------------------------------------------------|
E|------------------------------------------------------------------------------------------------|
+
e|------------------------------------------------------------------------------------------------|
B|------------------------------------------------------------------------------------------------|
G|------------------------------------------------------------------------------------------------|
D|------------------------------------------------------------------------------------------------|
A|------------------------------------------------------------------------------------------------|
E|------------------------------------------------------------------------------------------------|
+
e|-------------------------------------------------------------------------------------------5--#-|
B|-------------------------------------------------------------------------------------------6--#-|
G|-------------------------------------------------------------------------------------------5--#-|
D|------------------------------------------------------------------------------------------------|
A|------------------------------------------------------------------------------------------------|
E|------------------------------------------------------------------------------------------------|
+
e|-5--------5--5-----5--#--------------------5--#--5--------5--5-----5--#--------------------5--#-|
B|-6--------6--6-----6--#--------------------6--#--6--------6--6-----6--#--------------------6--#-|
G|-5--------5--5-----5--#--------------------5--#--5--------5--5-----5--#--------------------5--#-|
D|------------------------------------------------------------------------------------------------|
A|------------------------------------------------------------------------------------------------|
E|------------------------------------------------------------------------------------------------|
+
e|-5--------5--5-----5--#--------------------5--#--5--------5--5-----5--#--------5-----7----------|
B|-6--------6--6-----6--#--------------------6--#--6--------6--6-----6--#--------6-----8----------|
G|-5--------5--5-----5--#--------------------5--#--5--------5--5-----5--#--------5-----7----------|
D|------------------------------------------------------------------------------------------------|
A|------------------------------------------------------------------------------------------------|
E|------------------------------------------------------------------------------------------------|
+
e|------------------------------------------------------------------------------------------------|
B|------------------------------------------------------------------------------------------------|
G|------------------------------------------------------------------------------------------------|
D|------------------------------------------------------------------------------------------------|
A|------------------------------------------------------------------------------------------------|
E|------------------------------------------------------------------------------------------------|
|
|
|
VERSE II:
Guitar R
e|-------------------------------5-----x-----5--#--------------------------------0-----5-----#----||
B|-------------------------------6-----x-----6--#--------------------------------0-----6-----#----||
G|-------------------------------7-----x-----7--#--------------------------------------7-----#----|| x 3
D|-------------------------------7-----x-----7--#-------------------------------------------------||
A|------------------------------------------------------------------------------------------------||
E|------------------------------------------------------------------------------------------------||
+
e|-------------------------------5-----x-----5--#--------------------------------5-----7----------|
B|-------------------------------6-----x-----6--#--------------------------------6-----8----------|
G|-------------------------------7-----x-----7--#--------------------------------5-----7----------|
D|-------------------------------7-----x-----7--#-------------------------------------------------|
A|------------------------------------------------------------------------------------------------|
E|------------------------------------------------------------------------------------------------|
+
e|------------------------------------------------------------------------------------------------||
B|------------------------------------------------------------------------------------------------||
G|------------------------------------------------------------------------------------------------|| x 2
D|-5-----5-----5--5--5--5--2-----2-----2--2--2--2--5-----5-----5--5--5--5--2-----2-----2--2--2--2-||
A|-5-----5-----5--5--5--5--2-----2-----2--2--2--2--5-----5-----5--5--5--5--2-----2-----2--2--2--2-||
E|------------------------------------------------------------------------------------------------||
+
e|-------------------------------5-----x-----5--#--------------------------------0-----5-----#----|
B|-------------------------------6-----x-----6--#--------------------------------0-----6-----#----|
G|-------------------------------7-----x-----7--#--------------------------------------7-----#----|
D|/3-----------------------------7-----x-----7--#-------------------------------------------------|
A|/3----------------------------------------------------------------------------------------------|
E|------------------------------------------------------------------------------------------------|
+
e|-------------------------------5-----x-----5--#--------------------------------5-----7----------|
B|-------------------------------6-----x-----6--#--------------------------------6-----8----------|
G|-------------------------------7-----x-----7--#--------------------------------5-----7----------|
D|-------------------------------7-----x-----7--#-------------------------------------------------|
A|------------------------------------------------------------------------------------------------|
E|------------------------------------------------------------------------------------------------|
+
e|------------------------------------------------------------------------------------------------|
B|------------------------------------------------------------------------------------------------|
G|------------------------------------------------------------------------------------------------|
D|------------------------------------------------------------------------------------------------|
A|------------------------------------------------------------------------------------------------|
E|------------------------------------------------------------------------------------------------|



VERSE III:
Guitar L
e|-5--------5--5-----5--#--------------------5--#--5--------5--5-----5--#--------------------5--#-||
B|-6--------6--6-----6--#--------------------6--#--6--------6--6-----6--#--------------------6--#-||
G|-5--------5--5-----5--#--------------------5--#--5--------5--5-----5--#--------------------5--#-|| x 3
D|------------------------------------------------------------------------------------------------||
A|------------------------------------------------------------------------------------------------||
E|------------------------------------------------------------------------------------------------||
+
e|-5--------5--5-----5--#--------------------5--#--5--------5--5-----5--#--------5-----7----------|
B|-6--------6--6-----6--#--------------------6--#--6--------6--6-----6--#--------6-----8----------|
G|-5--------5--5-----5--#--------------------5--#--5--------5--5-----5--#--------5-----7----------|
D|------------------------------------------------------------------------------------------------|
A|------------------------------------------------------------------------------------------------|
E|------------------------------------------------------------------------------------------------|
+
e|------------------------------------------------------------------------------------------------||
B|------------------------------------------------------------------------------------------------||
G|------------------------------------------------------------------------------------------------|| x 3
D|------------------------------------------------------------------------------------------------||
A|------------------------------------------------------------------------------------------------||
E|------------------------------------------------------------------------------------------------||
+
e|------------------------------------------------------------------------------------|
B|------------------------------------------------------------------------------------|
G|------------------------------------------------------------------------------------|
D|------------------------------------------------------------------------------------|
A|------------------------------------------------------------------------------------|
E|------------------------------------------------------------------------------------|
|
|
|
VERSE III:
Guitar R
e|-------------------------------5-----x-----5--#--------------------------------0-----5-----#----||
B|-------------------------------6-----x-----6--#--------------------------------0-----6-----#----||
G|-------------------------------7-----x-----7--#--------------------------------------7-----#----|| x 3
D|-------------------------------7-----x-----7--#-------------------------------------------------||
A|------------------------------------------------------------------------------------------------||
E|------------------------------------------------------------------------------------------------||
+
e|-------------------------------5-----x-----5--#--------------------------------5-----7----------|
B|-------------------------------6-----x-----6--#--------------------------------6-----8----------|
G|-------------------------------7-----x-----7--#--------------------------------5-----7----------|
D|-------------------------------7-----x-----7--#-------------------------------------------------|
A|------------------------------------------------------------------------------------------------|
E|------------------------------------------------------------------------------------------------|
+
e|------------------------------------------------------------------------------------------------||
B|------------------------------------------------------------------------------------------------||
G|------------------------------------------------------------------------------------------------|| x 3
D|------------------------------------------------------------------------------------------------||
A|------------------------------------------------------------------------------------------------||
E|------------------------------------------------------------------------------------------------||
+
e|------------------------------------------------------------------------------------|
B|------------------------------------------------------------------------------------|
G|------------------------------------------------------------------------------------|
D|------------------------------------------------------------------------------------|
A|------------------------------------------------------------------------------------|
E|------------------------------------------------------------------------------------|



CHORUS II:
Guitar L
e|-7--7--7--7--7--7--7--7--9--9--9--9--9--9--9--9--#----------------------------------------------||
B|-8--8--8--8--8--8--8--8--10-10-10-10-10-10-10-10-#----------------------------------------------||
G|-7--7--7--7--7--7--7--7--9--9--9--9--9--9--9--9--#----------------------------------------------|| x 4
D|------------------------------------------------------------------------------------------------||
A|------------------------------------------------------------------------------------------------||
E|------------------------------------------------------------------------------------------------||
+
e|------------------------------------------------------------------------------------------------|
B|------------------------------------------------------------------------------------------------|
G|------------------------------------------------------------------------------------------------|
D|------------------------------------------------------------------------------------------------|
A|------------------------------------------------------------------------------------------------|
E|------------------------------------------------------------------------------------------------|
|
|
|
CHORUS II:
Guitar R
e|-x-----------------------------------------------------8-----x-----9-----x-----10----x-----11---||
B|-x-----------------------------------------------------8-----x-----9-----x-----10----x-----11---||
G|-x-----------------------------------------------------9-----x-----10----x-----11----x-----12---|| x 4
D|-x-----------------------------------------------------10----x-----11----x-----12----x-----13---||
A|------------------------------------------------------------------------------------------------||
E|------------------------------------------------------------------------------------------------||
+
e|-x-----8-----x-----9-----x-----10----x-----11----x-----8-----x-----9-----x-----10----x-----11---|
B|-x-----8-----x-----9-----x-----10----x-----11----x-----8-----x-----9-----x-----10----x-----11---|
G|-x-----9-----x-----10----x-----11----x-----12----x-----9-----x-----10----x-----11----x-----12---|
D|-x-----10----x-----11----x-----12----x-----13----x-----10----x-----11----x-----12----x-----13---|
A|------------------------------------------------------------------------------------------------|
E|------------------------------------------------------------------------------------------------|



SONG STRUCTURE:

Guitars L + R
INTRO
VERSE I
CHORUS I
VERSE II
CHORUS I
VERSE III
CHORUS II



That's it. Please leave comments or suggestions, corrections, requests, etc.
Cheers!
-Bennyshambles78-



            
            
Suggest correction
Creating personal tab
Creating personal tab
You can edit any tab online and save it as your Personal.

You can edit, replace or remove any tab part or add personal notes – all changes will be seen only by you.

Personal tabs can be accessed anytime from any device, even offline.
Learn more »
Give kudos to tab author, rate the tab!
1 2 3 4 5
comments
print report bad tab
guest
You may want to rate the tab now too:
select rating
Wanna post a correction for this tab? Suggest correction