Oops, an error
Loading. Please wait.
We have an official Bullet With Butterfly Wings tab made by UG professional guitarists. Check out the tab »
×
11,524 views 21 this week
3 commentsread comments
1 2 3 4 5
x 10
add to favorites
×
Save as Personal and add changes to this tab that will be seen only by you. Learn more ›
×
You can save this tab as Personal to edit and correct it or add notes. All changes will be seen only by you. Learn more »
launch autoscroll
font size
0
reset
guitar tuner
backing track
0:00
0:00
edit
Autoscroll
slow
fast
+/-
esc
set tempo
stop
This the right tab, all the other bass tabs on this website are wrong
i saw Darcy playing this live http://www.youtube.com/watch?v=gQrA5ggPqJo

Verse
Gb|---------------------------------------------------------------|
Db|---------------------------------------------------------------|
Ab|---------------------------------------------------------------|
Eb|--7-7-5-7-7-3-3-0-0-0-0-5-5-5-5--------------------------------|

Pre - chorus
Gb|---------------------------------------------------------------|
Db|---------------------------------------------------------------|
Ab|---------------------------------------------------------------|
Eb|--7-7-7-0-0-0-0-3-3-3-3-5-5-5-5--------------------------------|

Pre – Pre - Chorus
Gb|---------------------------------------------------------------|
Db|---------------------------------------------------------------|
Ab|---------------------------------------------------------------|
Eb|--7-7-7-7-3-3-3-3-5-5-5-5--------------------------------------|

Chorus
Gb|---------------------------------------------------------------|
Db|---------------------------------------------------------------|
Ab|---------------------------------------------------------------|
Eb|--7-7-5-3-3-3/9-10-10-10-5-5-5-5—--12/3------------------------|

End Of chorus
Gb|---------------------------------------------------------------|
Db|---------------------------------------------------------------|
Ab|---------------------------------------------------------------|
Eb|--2-0-2-5------------------------------------------------------|

2:25
Gb|---------------------------------------------------------------|
Db|---------------------------------------------------------------|
Ab|---------------------------------------------------------------|
Eb|-4-2-4-7-----------2-0-2-5-------------------------------------| X4

2:40
Gb|---------------------------------------------------------------|
Db|---------------------------------------------------------------|
Ab|---------------------------------------------------------------|
Eb|--0-0-0-0-0-3-3-3-2-0-2-5--------------------------------------| x5

2:58
Gb|---------------------------------------------------------------|
Db|---------------------------------------------------------------|
Ab|---------------------------------------------------------------|
Eb|--0-0-0-0-0-3-3-3-3-2-2-2-2-2-2-2------------------------------|

3:26
Gb|---------------------------------------------------------------|
Db|---------------------------------------------------------------|
Ab|---------------------------------------------------------------|
Eb|—--12/3--------------------------------------------------------|

Then:
Gb|---------------------------------------------------------------|
Db|---------------------------------------------------------------|
Ab|---------------------------------------------------------------|
Eb|--7-7-5-3-3-3/9-10-10-10-5-5-5-5—------------------------------|

End:
Gb|---------------------------------------------------------------|
Db|---------------------------------------------------------------|
Ab|---------------------------------------------------------------|
Eb|—--12/3--2-----------------------------------------------------|

            
            
Suggest correction
Creating personal tab
Creating personal tab
You can edit any tab online and save it as your Personal.

You can edit, replace or remove any tab part or add personal notes – all changes will be seen only by you.

Personal tabs can be accessed anytime from any device, even offline.
Learn more »
comments
print report bad tab
3 comments total. show 1 bad comment
+1 reply
sk8death26 21 Jan 01, 2011 05:13 AM

this is the right tab

+1 reply
Tyco666 10 Nov 13, 2015 11:56 AM

Of course he does but he is 1000% correct - this is exactly how D'arcy plays the song.

guest
Wanna post a correction for this tab? Suggest correction