Oops, an error
Loading. Please wait.

Here Is No Why tab

version 1
version 1

Whole song

Interactive

23,785 views 18 this week
3 commentsread comments
1 2 3 4 5
x 5
add to favorites
×
Save as Personal and add changes to this tab that will be seen only by you. Learn more ›
×
You can save this tab as Personal to edit and correct it or add notes. All changes will be seen only by you. Learn more »
launch autoscroll
font size
0
reset
how to read this tab
guitar tuner
edit
Autoscroll
slow
fast
+/-
esc
set tempo
stop
HERE IS NO WHY - by the Smashing Pumpkins from the album
==== == == ===   Mellon Collie and the Infinite Sadness
SONG:      Here is No Why
By:        The Smashing Pumpkins
TUNING:    Down half a step
Comment:   This song contains similar riffs throughout, BUT, the riffs
           are changed everyonce in a while.  I tab'ed it from start to
           finish to make it easier.

  [INTRO]: Amaj7, NOT A.
D#|-x-------------x-------------x------------------------------------------|
A#|-2-----x-x--x--2-----x-x--x--2-----x-x--x------------------0-----x-x--x-|
F#|-1-----x-x--x--1-----x-x--x--1-----x-x--x--2h4p2\1-1h2-2/4-1-----x-x--x-|
C#|-2-----x-x--x--2-----x-x--x--2-----x-x--x------------------2-----x-x--x-|
G#|-0-----x-x--x--0-----x-x--x--0-----x-x--x------------------2-----x-x--x-|
D#|-x-----x-x--x--x-----x-x--x--x-----x-x--x------------------0-----x-x--x-|

D#|-----------x-------------x-------------x-------------------------------|
A#|-0---------2-----x-x--x--2-----x-x--x--2-----x-x--x------------------0-|
F#|-1---------1-----x-x--x--1-----x-x--x--1-----x-x--x--2h4p2\1-1h2-2/4-1-|
C#|-2---------2-----x-x--x--2-----x-x--x--2-----x-x--x------------------2-|
G#|-2---------0-----x-x--x--0-----x-x--x--0-----x-x--x------------------2-|
D#|-0--0--3p0-x-----x-x--x--x-----x-x--x--x-----x-x--x------------------0-|

D#|-------------------|
A#|-------------------|
F#|-9/11-9-7-7-7-7-6--|
C#|-x--x-x-x-7-7-7-7--|
G#|-7/-9-7-5-5-5-5-7--|
D#|----------5-5-5-5--|

  [RIFF A]:
D#|---x-------------x-------------x-------------x--------------------------|
A#|---2-----x-x--x--2-----x-x--x--2-----x-x--x--2-----x-x--x--0-----x-x--x-|
F#|---1-----x-x--x--1-----x-x--x--1-----x-x--x--1-----x-x--x--1-----x-x--x-|
C#|---2-----x-x--x--2-----x-x--x--2-----x-x--x--2-----x-x--x--2-----x-x--x-|
G#|---0-----x-x--x--0-----x-x--x--0-----x-x--x--0-----x-x--x--2-----x-x--x-|
D#|---x-----x-x--x--x-----x-x--x--x-----x-x--x--x-----x-x--x--0-----x-x--x-|
   The useless ... another day   The endless.. death rock boooooy__

D#|--------------|
A#|---0----------|
F#|---1----------|
C#|---2----------|
G#|---2----------|
D#|---0--0--3p0--|

Repeat [RIFF A]:
Mascara sure and lipstick lost ... glitter burned by restless thoughts
D#|-------------------|
A#|-------------------|
F#|-9/11-9-7-7-7-7-6--|
C#|-x--x-x-x-7-7-7-7--|
G#|-7/-9-7-5-5-5-5-7--|
D#|----------5-5-5-5--|
        of being forgotten

  [NEXT RIFF, this one varies]:  Distortion comes in REALLY big here.
D#|------------------------------------------------------------------------|
A#|------------------------------------------------------------------------|
F#|---------------6--6--6------------9-9-9-9-911-9-7-----------------------|
C#|--4-----4-4-4--7--7--7--2---------x-x-x-x-x-x-x-x-----------------------|
G#|--4-----4-4-4--7--7--7--2---------7-7-7-7-7-9-7-5-----------------------|
D#|--2-----2-2-2--5--5--5--0-----------------------------------------------|
        and in your sad machines

D#|------------------------------------------------------------------------|
A#|------------------------------------------------------------------------|
F#|---------------6--6--6--9---------9-9-9-9-911-9-7-----------------------|
C#|--4-----4-4-4--7--7--7--9---------x-x-x-x-x-x-x-x-----------------------|
G#|--4-----4-4-4--7--7--7--7---------7-7-7-7-7-9-7-5-----------------------|
D#|--2-----2-2-2--5--5--5--------------------------------------------------|
        you'll forever staaay

D#|----------------------------------------------------|
A#|----------------------------------------------------|
F#|---------------6--6--6------------9/11-9-7-7-7-7-6--|
C#|--4-----4-4-4--7--7--7--2---------x--x-x-x-7-7-7-7--|
G#|--4-----4-4-4--7--7--7--2---------7/-9-7-5-5-5-5-7--|
D#|--2-----2-2-2--5--5--5--0------------------5-5-5-5--|
        desperate and displeased      with   whoever you are

D#|---------x-------------x---------------------------------------------|
A#|-x-x--x--2-----x-x--x--2-----x-x--x------------------0-----x-x--x--0-|
F#|-x-x--x--1-----x-x--x--1-----x-x--x--2h4p2\1-1h2-2/4-1-----x-x--x--1-|
C#|-x-x--x--2-----x-x--x--2-----x-x--x------------------2-----x-x--x--2-|
G#|-x-x--x--0-----x-x--x--0-----x-x--x------------------2-----x-x--x--2-|
D#|-x-x--x--x-----x-x--x--x-----x-x--x------------------0-----x-x--x--0-|
            and you're a star

D#|--------|
A#|--------|
F#|--------|
C#|--------|
G#|--------|
D#|-0--3p0-|

  [The Amaj7 goes on a little longer here]
D#|-x-------------x-------------x-------------x-------------x------------|
A#|-2-----x-x--x--2-----x-x--x--2-----x-x--x--2-----x-x--x--2-----x-x--x-|
F#|-1-----x-x--x--1-----x-x--x--1-----x-x--x--1-----x-x--x--1-----x-x--x-|
C#|-2-----x-x--x--2-----x-x--x--2-----x-x--x--2-----x-x--x--2-----x-x--x-|
G#|-0-----x-x--x--0-----x-x--x--0-----x-x--x--0-----x-x--x--0-----x-x--x-|
D#|-x-----x-x--x--x-----x-x--x--x-----x-x--x--x-----x-x--x--x-----x-x--x-|
   Somewhere______         he  pulls     his hair down     over a frowning

D#|-x-------------------------------------x-------------x-------------x----|
A#|-2-----x-x--x--0-----x-x--x--0---------2-----x-x--x--2-----x-x--x--2----|
F#|-1-----x-x--x--1-----x-x--x--1---------1-----x-x--x--1-----x-x--x--1----|
C#|-2-----x-x--x--2-----x-x--x--2---------2-----x-x--x--2-----x-x--x--2----|
G#|-0-----x-x--x--2-----x-x--x--2---------0-----x-x--x--0-----x-x--x--0----|
D#|-x-----x-x--x--0-----x-x--x--0--0--3p0-x-----x-x--x--x-----x-x--x--x----|
                smile                    A hidden      cannot find the secret

D#|---------x------------------------------------|
A#|-x-x--x--2----x-x--x--0-----------------------|
F#|-x-x--x--1----x-x--x--1-----9/11-9-7-7-7-7-6--|
C#|-x-x--x--2----x-x--x--2-----x--x-x-x-7-7-7-7--|
G#|-x-x--x--0----x-x--x--2-----7/-9-7-5-5-5-5-7--|
D#|-x-x--x--x----x-x--x--0--------------5-5-5-5--|
  star     cannot       shine          over to you

     |-Palm Mute-|
D#|--4-x-x-4-x-x-----------------------------------------------------------|
A#|--5-x-x-5-x-x-5---5---7---7-----5---------------------------------------|
F#|--6-x-x-6-x-x-6---6---7---7-----6---------------------------------------|
C#|--6-x-x-6-x-x-6---6---7---7-----7----------------15b16b15~~-------------|
G#|--4-x-x-4-x-x-4---4---5---5-----7---------------------------------------|
D#|--4-x-x-4-x-x-4---4---5---5-----5---------------------------------------|
                May the king of   gloom

     |-Palm Mute-|
D#|--4-x-x-4-x-x-----------------------------------------------------------|
A#|--5-x-x-5-x-x-5---5---7---7-----9---------------------------------------|
F#|--6-x-x-6-x-x-6---6---7---7-----9----------------13/14-14/16-16~--------|
C#|--6-x-x-6-x-x-6---6---7---7-----9-----------------x--x--x--x--x---------|
G#|--4-x-x-4-x-x-4---4---5---5-----7----------------11/12-12/14-14~--------|
D#|--4-x-x-4-x-x-4---4---5---5-----7---------------------------------------|
                Be  for__ever doooooomed

D#|------------------------------------------------------------------------|
A#|------------------------------------------------------------------------|
F#|---------------6--6--6------------9-9-9-9-911-9-7-----------------------|
C#|--4-----4-4-4--7--7--7--2---------x-x-x-x-x-x-x-x-----------------------|
G#|--4-----4-4-4--7--7--7--2---------7-7-7-7-7-9-7-5-----------------------|
D#|--2-----2-2-2--5--5--5--0-----------------------------------------------|
          and in your sad machines

D#|------------------------------------------------------------------------|
A#|------------------------------------------------------------------------|
F#|---------------6--6--6--9---------9-9-9-9-911-9-7-----------------------|
C#|--4-----4-4-4--7--7--7--9---------x-x-x-x-x-x-x-x-----------------------|
G#|--4-----4-4-4--7--7--7--7---------7-7-7-7-7-9-7-5-----------------------|
D#|--2-----2-2-2--5--5--5--------------------------------------------------|
          you'll forever  stayyy_________

D#|------------------------------------------------------------------------|
A#|------------------------------------------------------------------------|
F#|---------------6--6--6------------9-9-9-9-911-9-7-----------------------|
C#|--4-----4-4-4--7--7--7--2---------x-x-x-x-x-x-x-x-----------------------|
G#|--4-----4-4-4--7--7--7--2---------7-7-7-7-7-9-7-5-----------------------|
D#|--2-----2-2-2--5--5--5--0-----------------------------------------------|
          burning up in  speed

D#|------------------------------------------------------------------------|
A#|------------------------------------------------------------------------|
F#|---------------6--6--6------------9/11-9-7-7-7-7-6----------------------|
C#|--4-----4-4-4--7--7--7--2---------x--x-x-x-7-7-7-7----------------------|
G#|--4-----4-4-4--7--7--7--2---------7/-9-7-5-5-5-5-7----------------------|
D#|--2-----2-2-2--5--5--5--0------------------5-5-5-5----------------------|
          lost inside the dreams             of teen machines

[interlude leading up to solo]:
The useless drag, the empty days
the lonely towers of long mistakes
to forgotten faces and faded loves
sitting still was never enough

  [SOLO]: Solo, credit goes to jhewitt@ifu.net for this part of the solo
          thanx a bunch.
D#|---------------------------------------------------------------------|
A#|--15b----------------------------------------------------------------|
F#|-------------------------15b--12h13-12-12h13p12------------------15--|b
C#|-----16b-13-15-17h18-13~------------------------13h15p13--15p13------|
G#|---------------------------------------------------------------------|
D#|---------------------------------------------------------------------|

D#|--------------------------------------------------------------------|
A#|--19b---------------------------------------------------------------|
F#|------15/17\13--------------------13h15p13-12h13p12-13h15-13b12-----|
C#|---------------15/17\13-13/15/18------------------------------------|
G#|--------------------------------------------------------------------|
D#|--------------------------------------------------------------------|

     |-Palm Mute-|
D#|--4-x-x-4-x-x-----------------------------------------------------------|
A#|--5-x-x-5-x-x-5---5---7---7-----5---------------------------------------|
F#|--6-x-x-6-x-x-6---6---7---7-----6---------------------------------------|
C#|--6-x-x-6-x-x-6---6---7---7-----7----------------15b16b15~~-------------|
G#|--4-x-x-4-x-x-4---4---5---5-----7---------------------------------------|
D#|--4-x-x-4-x-x-4---4---5---5-----5---------------------------------------|
                and if your giving in(now thats a scream)

     |-Palm Mute-|
D#|--4-x-x-4-x-x-----------------------------------------------------------|
A#|--5-x-x-5-x-x-5---5---7---7-----9---------------------------------------|
F#|--6-x-x-6-x-x-6---6---7---7-----9----------------13/14-14/16-16~--------|
C#|--6-x-x-6-x-x-6---6---7---7-----9-----------------x--x--x--x--x---------|
G#|--4-x-x-4-x-x-4---4---5---5-----7----------------11/12-12/14-14~--------|
D#|--4-x-x-4-x-x-4---4---5---5-----7---------------------------------------|
                then your giving  uuup

D#|------------------------------------------------------------------------|
A#|------------------------------------------------------------------------|
F#|---------------6--6--6------------9-9-9-9-911-9-7-----------------------|
C#|--4-----4-4-4--7--7--7--2---------x-x-x-x-x-x-x-x-----------------------|
G#|--4-----4-4-4--7--7--7--2---------7-7-7-7-7-9-7-5-----------------------|
D#|--2-----2-2-2--5--5--5--0-----------------------------------------------|
        cause in your sad machines

D#|------------------------------------------------------------------------|
A#|------------------------------------------------------------------------|
F#|---------------6--6--6--9---------9-9-9-9-911-9-7-----------------------|
C#|--4-----4-4-4--7--7--7--9---------x-x-x-x-x-x-x-x-----------------------|
G#|--4-----4-4-4--7--7--7--7---------7-7-7-7-7-9-7-5-----------------------|
D#|--2-----2-2-2--5--5--5--------------------------------------------------|
          you'll forever  stay

D#|------------------------------------------------------------------------|
A#|------------------------------------------------------------------------|
F#|---------------6--6--6------------9-9-9-9-911-9-7-----------------------|
C#|--4-----4-4-4--7--7--7--2---------x-x-x-x-x-x-x-x-----------------------|
G#|--4-----4-4-4--7--7--7--2---------7-7-7-7-7-9-7-5-----------------------|
D#|--2-----2-2-2--5--5--5--0-----------------------------------------------|
          burning up in   speed

D#|----------------------------------------------------|
A#|----------------------------------------------------|
F#|---------------6--6--6------------9/11-9-7-7-7-7-6--|
C#|--4-----4-4-4--7--7--7--2---------x--x-x-x-7-7-7-7--|
G#|--4-----4-4-4--7--7--7--2---------7/-9-7-5-5-5-5-7--|
D#|--2-----2-2-2--5--5--5--0------------------5-5-5-5--|
          lost inside the dreams             of teen machines

D#|---------x-------------x------------------------------------------------|
A#|-x-x--x--2-----x-x--x--2-----x-x--x------------------5~-----------------|
F#|-x-x--x--1-----x-x--x--1-----x-x--x--2h4p2\1-1h2-2/4--------------------|
C#|-x-x--x--2-----x-x--x--2-----x-x--x--(slow)-----------------------------|
G#|-x-x--x--0-----x-x--x--0-----x-x--x-------------------------------------|
D#|-x-x--x--x-----x-x--x--x-----x-x--x-------------------------------------|

************************************

| x  Dead note
| h  Hammer-on
| p  Pull-off
| /  Slide up
| \  Slide down
| b  Bend
| ~  Vibrato

************************************

            
            
Suggest correction
Creating personal tab
Creating personal tab
You can edit any tab online and save it as your Personal.

You can edit, replace or remove any tab part or add personal notes – all changes will be seen only by you.

Personal tabs can be accessed anytime from any device, even offline.
Learn more »
comments
print report bad tab
3 comments total.
0 reply
the piper 1,413 Sep 04, 2007 05:03 PM

the a is Asus2

0 reply
the piper 1,413 Sep 04, 2007 05:06 PM

oh nvmd it's A7M like the other guy said

0 reply
X*x*X*x*X 10 Dec 11, 2007 08:59 PM

PLEASE READ!

The chorus goes as
following:

eb-----|
Bb-----|
Gb----
-----6-6-6----16-16-16-16
-16-17-16-14-11-|
Db-4-4-4-4-7-7-7-2-----|
Ab-4-4-4-4-7-7-7-2--14-14
-
14-14-14-15-14-12-9--|
Eb-2-2-2-2-5-5-5-0-----|

guest
Wanna post a correction for this tab? Suggest correction