Oops, an error
Loading. Please wait.

Quiet tab

version 2
version 2

Whole song

Interactive

13,352 views 81 this week
no commentswrite comment
1 2 3 4 5
x 6
add to favorites
×
Save as Personal and add changes to this tab that will be seen only by you. Learn more ›
×
You can save this tab as Personal to edit and correct it or add notes. All changes will be seen only by you. Learn more »
launch autoscroll
font size
0
reset
how to read this tab
guitar tuner
edit
Autoscroll
slow
fast
+/-
esc
set tempo
stop
Author

Tuning: E A D G B E


INTRO (some wierd trippy effect, but the live versions billy just builds up the thick E 
from 2 to 12)
                                x4
|---------------------------------|
|---------------------------------|
|---------------------------------|
|-----4-4-4/5-5-5-5/7-7-7-7/9-9-9-|
|-----4-4-4/5-5-5-5/7-7-7-7/9-9-9-|
|-0h2-2-2-2/3-3-3-3/5-5-5-5/7-7-7-|


VERSE
                                x8
|---------------------------------|
|---------------------------------|
|---------------------------------|
|-----4-4-4/5-5-5-5/7-7-7-7/9-9-9-|
|-----4-4-4/5-5-5-5/7-7-7-7/9-9-9-|
|-0h2-2-2-2/3-3-3-3/5-5-5-5/7-7-7-|


CHORUS
                                       x3
|----------------------------------------|
|----------------------------------------|
|-------11/13-13-13----------------------|
|-11-11--------------11\9-9-9----9\7-7-7-|
|-11-11-9-/11-11-11--11\9-9-9----9\7-7-7-|
|-9--9--0-----0--0---9-\7-7-7----7\5-5-5-|

|----------------------------|
|----------------------------|
|-------11/13-13-13----------|
|-11-11--------------11\9----|
|-11-11-9-/11-11-11--11\9----|
|-9--9--0-----0--0---9-\7----|


VERSE 2
                               x12
|---------------------------------|
|---------------------------------|
|---------------------------------|
|-----4-4-4/5-5-5-5/7-7-7-7/9-9-9-|
|-----4-4-4/5-5-5-5/7-7-7-7/9-9-9-|
|-0h2-2-2-2/3-3-3-3/5-5-5-5/7-7-7-|


CHORUS 2
                                       x3
|----------------------------------------|
|----------------------------------------|
|-------11/13-13-13----------------------|
|-11-11--------------11\9-9-9----9\7-7-7-|
|-11-11-9-/11-11-11--11\9-9-9----9\7-7-7-|
|-9--9--0-----0--0---9-\7-7-7----7\5-5-5-|

|----------------------------|
|----------------------------|
|-------11/13-13-13----------|
|-11-11--------------11\9----|
|-11-11-9-/11-11-11--11\9----|
|-9--9--0-----0--0---9-\7----|


BUILD UP TO SOLO

        x8        x4        x4        x2        x2        x2        x2
|---------|---------|---------|---------|---------|---------|---------|
|---------|---------|---------|---------|---------|---------|---------|
|---------|---------|---------|---------|---------|---------|---------|
|---------|---------|---------|---------|---------|---------|---------|
|-2-2-2-2-|-3-3-3-3-|-4-4-4-4-|-5-5-5-5-|-6-6-6-6-|-7-7-7-7-|-8-8-8-8-|
|---------|---------|---------|---------|---------|---------|---------|

|-----------------------------------------------------------------------------|
|-----------------------------------------------------------------------------|
|-----------------------------------------------------------------------------|
|-----------------------------------------------------------------------------|
|-9-9-9-9-10-10-10-10-11-11-11-11-12-12-12-12-13-13-13-13-14-14-14-14-15-15---|
|-----------------------------------------------------------------------------|

|------------------|
|------------------|
|------------------|
|------------------|
|15-15-16-16-16-16-|
|------------------|

SOLO

Rhythm                                 x3
|----------------------------------------|
|----------------------------------------|
|-------11/13-13-13----------------------|
|-11-11--------------11\9-9-9----9\7-7-7-|
|-11-11-9-/11-11-11--11\9-9-9----9\7-7-7-|
|-9--9--0-----0--0---9-\7-7-7----7\5-5-5-|

|-------------------------------------------|
|-------------------------------------------|
|-------11/13-13-13-------------------------|
|-11-11--------------11\9-9-9----9/12-12-12-|
|-11-11-9-/11-11-11--11\9-9-9----9/12-12-12-|
|-9--9--0-----0--0---9-\7-7-7----7/10-10-10-|


Lead (*=artificial harmonic) (you gotta realize that billy overdubs the shit out of this 
and it sounds like there might be an octave effect in there too)
|---------------------------------------------------------------------------|
|------------12b14-9h12p9---------------------------------------------------|
|-11gb13~~~~--------------11b13r11p9-11/13--*13-*11----9--------------------|
|---------------------------------------------------------11-9--------------|
|--------------------------------------------------------------11p9\7h9gb11-|
|---------------------------------------------------------------------------|

 ---------------------------------------------------------------------------|
 ------------------16b17r16--------19b21r19-17h19p17------------------------|
 ---------------------------*13~~--------------------18h20p18p16h18b20~~~~--|
 ---------------------------------------------------------------------------|
 -b*11--9h11~~~~------------------------------------------------------------|
 ---------------------------------------------------------------------------|

 -19gb21~~~~----------------21b24~~~~-|
 -------------19b21--19b21------------|
 -------------------------------------|
 -------------------------------------|
 -------------------------------------|
 -------------------------------------|


BRIDGE - Play the following entire section 2x

 Guitar 1 (lead plays this part after solo)
|-------------------------|
|-------------------------|
|-9-11-9~~~~--9-11-9------|  this is without the octave effect
|--------------------9~~~~|
|-------------------------|
|-------------------------|
|Guitar 2
|-------------------------|
|-------------------------|
|-------------------------|
|-----4-4-4/5-5-5-5/7-7-7-|
|-----4-4-4/5-5-5-5/7-7-7-|
|-0h2-2-2-2/3-3-3-3/5-5-5-|


|Guitar 2
|-------------------------|
|-------------------------|
|-------------------------|
|-----4-4-4/5-5-5-5/7-7-7-|
|-----4-4-4/5-5-5-5/7-7-7-|
|-0h2-2-2-2/3-3-3-3/5-5-5-|


|Guitar 2
|-------------------------|
|-------------------------|
|-------------------------|
|-----4-4-4/5-5-5-5/7-7-7-|
|-----4-4-4/5-5-5-5/7-7-7-|
|-0h2-2-2-2/3-3-3-3/5-5-5-|


|Guitar 2
|---------------------------------|
|---------------------------------|
|---------------------------------|
|-----4-4-4/5-5-5-5/7-7-7-2-2-2-2-|
|-----4-4-4/5-5-5-5/7-7-7-2-2-2-2-|
|-0h2-2-2-2/3-3-3-3/5-5-5-0-0-0-0-|


INTERLUDE - Play the following 2x

                        x3
|-------------------------|
|-------------------------|
|-------------------------|
|-----4-4-4/5-5-5-5/7-7-7-|
|-----4-4-4/5-5-5-5/7-7-7-|
|-0h2-2-2-2/3-3-3-3/5-5-5-|

|---------------------------------|
|---------------------------------|
|---------------------------------|
|-----4-4-4/5-5-5-5/7-7-7-2-2-2-2-|
|-----4-4-4/5-5-5-5/7-7-7-2-2-2-2-|
|-0h2-2-2-2/3-3-3-3/5-5-5-0-0-0-0-|

                        x3
|-------------------------|
|-------------------------|
|-------------------------|
|-----4-4-4/5-5-5-5/7-7-7-|
|-----4-4-4/5-5-5-5/7-7-7-|
|-0h2-2-2-2/3-3-3-3/5-5-5-|

|---------------------------------|
|---------------------------------|
|---------------------------------|
|-----4-4-4/5-5-5-5/7-7-7-7/9-9-9-|
|-----4-4-4/5-5-5-5/7-7-7-7/9-9-9-|
|-0h2-2-2-2/3-3-3-3/5-5-5-5/7-7-7-|


CHORUS 3
                                       x7
|----------------------------------------|
|----------------------------------------|
|-------11/13-13-13----------------------|
|-11-11--------------11\9-9-9----9\7-7-7-|
|-11-11-9-/11-11-11--11\9-9-9----9\7-7-7-|
|-9--9--0-----0--0---9-\7-7-7----7\5-5-5-|


Lead (this part of the song just sounds sweet)
|-------------------------------------------------------------------|
|-14r12-9b10-9--------------------------------------------12b14~~~~-|
|--------------11-9~~-----9~~~~----------9-11b13r11-9~~~~-----------|
|----------------------11--------11-9-11----------------------------|
|-------------------------------------------------------------------|
|-------------------------------------------------------------------|

 -------------------------------------------------------------------|
 -------------------------------------------------------------------|
 -11b13r11b13~~~~-9~~-9---------------9-11b13-11--------------------|
 -----------------------9h11---------------------9~~--11------------|
 ----------------------------7~~-9/11--------------------7~~~~-9/11-|
 -------------------------------------------------------------------|

 ---------------------------------------------|
 --------------12-12b14~~~~-12b14r12--12~~~~--|
 ---9-----9-11--------------------------------|
 -9----11-------------------------------------|
 ---------------------------------------------|
 ---------------------------------------------|


End on
|--------------|
|--------------|
|--------------|
|-11-11-2-2----|
|-11-11-2-2----|
|-9--9--0-0----|

            
            
Suggest correction
Creating personal tab
Creating personal tab
You can edit any tab online and save it as your Personal.

You can edit, replace or remove any tab part or add personal notes – all changes will be seen only by you.

Personal tabs can be accessed anytime from any device, even offline.
Learn more »
comments
print report bad tab
guest
You may want to rate the tab now too:
select rating
Wanna post a correction for this tab? Suggest correction