Oops, an error
Loading. Please wait.

Today tab

version 6
20,857 views 600 this week
6 commentsread comments
1 2 3 4 5
x 5
add to favorites
×
Save as Personal and add changes to this tab that will be seen only by you. Learn more ›
×
You can save this tab as Personal to edit and correct it or add notes. All changes will be seen only by you. Learn more »
launch autoscroll
font size
0
reset
how to read this tab
guitar tuner
backing track
0:00
0:00
edit
Autoscroll
slow
fast
+/-
esc
set tempo
stop
Today
written by Billy Corgan
Tabbed by: Tom Martin
Standard tuning

[Intro] (clean)
e|-11--13--11--15p11-11-|
B|---11--11--11---------|
G|----------------------|
D|----------------------|
A|----------------------|
E|----------------------|

[Intro] (distortion)
e|------------------------------------|
B|------------------------------------|
G|-8-8-8-8----------------------------| (x2)
D|-8-8-8-8-8-8-8-8-6-6-6-6-6-6-6666---|
A|-6-6-6-6-8-8-8-8-6-6-6-6-6-6-6666---|
E|---------6-6-6-6-4-4-4-4-4-4-4444---|

e|--------------------------------------|
B|--------------------------------------|
G|-8-8-8-8------------------------------|
D|-8-8-8-8-8-8-8-8-10-10-10-10-6-6-6666-|
A|-6-6-6-6-8-8-8-8-10-10-10-10-6-6-6666-|
E|---------6-6-6-6-8--8--8--8--4-4-4444-|

e|----------------------------------|
B|----------------------------------|
G|-8-8-8-8--------------------------|
D|-8-8-8-8-8-8-8-8-6-6-6-6-6-6-6666-|
A|-6-6-6-6-8-8-8-8-6-6-6-6-6-6-6666-|
E|---------6-6-6-6-4-4-4-4-4-4-4444-|

[Verse 1] (clean)
e|----------------------------------|
B|----------------------------------|
G|-8-8-8-8--------------------------| x3
D|-8-8-8-8-8-8-8-8-6-6-6-6-6-6-6666-|
A|-6-6-6-6-8-8-8-8-6-6-6-6-6-6-6666-|
E|---------6-6-6-6-4-4-4-4-4-4-4444-|

e|--------------------------------------------|
B|--------------------------------------------|
G|-8-8-8-8------------------------------------| 
D|-8-8-8-8-8-8-8-8-10-10-10-10-10-10-10101010-|
A|-6-6-6-6-8-8-8-8-10-10-10-10-10-10-10101010-|
E|---------6-6-6-6-8--8--8--8--8--8--8-8-8-8--|

[Chorus 1] (distortion)
e|--------------------------------------------|
B|--------------------------------------------|
G|--------------------------------------------| (x3)
D|-3-3-3-3-6-6-6-6-10-10-10-10-10-10-10101010-|
A|-3-3-3-3-6-6-6-6-10-10-10-10-10-10-10101010-|
E|-1-1-1-1-4-4-4-4-8--8--8--8--8--8--8-8-8-8--|

e|--------------------------------------------|
B|--------------------------------------------|
G|-----------------5-5-5-5-10-10-10101010-----|
D|-3-3-3-3-6-6-6-6-5-5-5-5-10-10-10101010-----|
A|-3-3-3-3-6-6-6-6-3-3-3-3-8--8--8-8-8-8------|
E|-1-1-1-1-4-4-4-4----------------------------|

[Verse 2] (clean)
e|----------------------------------|
B|----------------------------------|
G|-8-8-8-8--------------------------| x3
D|-8-8-8-8-8-8-8-8-6-6-6-6-6-6-6666-|
A|-6-6-6-6-8-8-8-8-6-6-6-6-6-6-6666-|
E|---------6-6-6-6-4-4-4-4-4-4-4444-|

e|--------------------------------------------|
B|--------------------------------------------|
G|-8-8-8-8------------------------------------| 
D|-8-8-8-8-8-8-8-8-10-10-10-10-10-10-10101010-|
A|-6-6-6-6-8-8-8-8-10-10-10-10-10-10-10101010-|
E|---------6-6-6-6-8--8--8--8--8--8--8-8-8-8--|

[Chorus 2] (distortion)
e|----------------------------------|
B|----------------------------------|
G|-----------------8-8-8-8----------| (x3)
D|-3-3-3-3-6-6-6-6-8-8-8-8-8-8-8888-|
A|-3-3-3-3-6-6-6-6-6-6-6-6-8-8-8888-|
E|-1-1-1-1-4-4-4-4---------6-6-6666-|

e|--------------------------------------------|
B|--------------------------------------------|
G|-----------------5-5-5-5-10-10-10101010-----|
D|-3-3-3-3-6-6-6-6-5-5-5-5-10-10-10101010-----|
A|-3-3-3-3-6-6-6-6-3-3-3-3-8--8--8-8-8-8------|
E|-1-1-1-1-4-4-4-4----------------------------|

[Bridge] (distortion)
e|---------------------------------|
B|---------------------------------|
G|8-8-8-8---------8-8-8-8----------| (x2)
D|8-8-8-8-8-8-8-8-8-8-8-8-6-6-6666-|
A|6-6-6-6-8-8-8-8-6-6-6-6-6-6-6666-|
E|--------6-6-6-6---------4-4-4444-|

e|-------------------------------------|
B|-------------------------------------|
G|8-8-8-8------------------------------|
D|8-8-8-8-8-8-8-8-10-10-10-10-6-6-6666-|
A|6-6-6-6-8-8-8-8-10-10-10-10-6-6-6666-|
E|--------6-6-6-6-8--8--8--8--4-4-4444-|

e|----------------------------------------------------------------------------|
B|----------------------------------------------------------------------------|
G|8-8-8-8---------------------------------------------------------------------|
D|8-8-8-8-8-8-8-8-10-10-10-10-10-10-10101010-10101010101010101010101010101010-|
A|6-6-6-6-8-8-8-8-10-10-10-10-10-10-10101010-10101010101010101010101010101010-|
E|--------6-6-6-6-8--8--8--8--8--8--8-8-8-8--8-8-8-8-8-8-8-8-8-8-8-8-8-8-8-8--|

[Chorus 3]  (distortion)
e|--------------------------------------------|
B|--------------------------------------------|
G|--------------------------------------------| (x3)
D|-3-3-3-3-6-6-6-6-10-10-10-10-10-10-10101010-|
A|-3-3-3-3-6-6-6-6-10-10-10-10-10-10-10101010-|
E|-1-1-1-1-4-4-4-4-8--8--8--8--8--8--8-8-8-8--|

e|-----------------|
B|-----------------|
G|-----------------|
D|-3-3-3-3-6-6-6-6-|
A|-3-3-3-3-6-6-6-6-|
E|-1-1-1-1-4-4-4-4-|

[Outro] (distortion)
e|-------------------------------------|
B|-------------------------------------|
G|8-8-8-8------------------------------| (x3)
D|8-8-8-8-8-8-8-8-10-10-10-10-6-6-6666-|
A|6-6-6-6-8-8-8-8-10-10-10-10-6-6-6666-|
E|--------6-6-6-6-8--8--8--8--4-4-4444-|

e|------------------------------------------|
B|------------------------------------------|
G|8-8-8-8-------------------------------8~~~| 
D|8-8-8-8-8-8-8-8-10-10-10-10-6-6-6666--8~~~|
A|6-6-6-6-8-8-8-8-10-10-10-10-6-6-6666--6~~~|
E|--------6-6-6-6-8--8--8--8--4-4-4444------|

            
            
Suggest correction
Creating personal tab
Creating personal tab
You can edit any tab online and save it as your Personal.

You can edit, replace or remove any tab part or add personal notes – all changes will be seen only by you.

Personal tabs can be accessed anytime from any device, even offline.
Learn more »
comments
print report bad tab
6 comments total. Showing first comments.
+2 reply
puddler 40 Jun 05, 2005 08:00 PM

your intro sounds like ***

-1 reply
zero27 70 Jun 27, 2005 08:00 PM

*** off douche bag

0 reply
fender f**kwit 40 Mar 05, 2007 10:28 AM

you guys are clearly too think to notice that he's simply put the strings in the opposite order to usual for the intro. jesus christ have some intuition

guest
You may want to rate the tab now too:
select rating
Wanna post a correction for this tab? Suggest correction