Oops, an error
Loading. Please wait.

Today tab

version 8
388 views 1 this week
no commentswrite comment
1 2 3 4 5
1 last vote to show rating
add to favorites
×
Save as Personal and add changes to this tab that will be seen only by you. Learn more ›
×
You can save this tab as Personal to edit and correct it or add notes. All changes will be seen only by you. Learn more »
launch autoscroll
font size
0
reset
how to read this tab
guitar tuner
backing track
0:00
0:00
edit
Autoscroll
slow
fast
+/-
esc
set tempo
stop
I've seen a lot of tabs for this song, and many have gotten close but have failed to recognize important
changes in the song. First off, as The Smashing Pumpkins often do, this song is played 1/2 step down on the
album. Also, notice that the chord progression in the second chorus is different from the first chorus, many 
people have ignored this. Anyways, I couldn't have done this without the help of previous tabs, so consider
this a combined effort of how the tab should be.


Intro part 1

(Billy; Clean)                  x4
eb|-12----14----12----16p12----|
Bb|----12----12----12-------12-|
Gb|----------------------------|
Db|----------------------------|
Ab|----------------------------|
Eb|----------------------------|


Intro part 2

(Billy; Distorted)              x8
eb|-12----14----12----16p12----|
Bb|----12----12----12-------12-|
Gb|----------------------------|
Db|----------------------------|
Ab|----------------------------|
Eb|----------------------------|

(James; Distorted)          
eb|--------------------|--------------------|----------------------|--------------------|
Bb|--------------------|--------------------|----------------------|--------------------|
Gb|-9------------------|-9------------------|-9--------------------|-9------------------|
Db|-9----9----7--------|-9----9----7--------|-9----9----11----7----|-9----9----11-------|
Ab|-7----9----7--------|-7----9----7--------|-7----9----11----7----|-7----9----11-------|
Eb|------7----5--------|------7----5--------|------7----9-----5----|------7----9--------|


Verse 1

(Billy; Clean)
eb|-7----7----5--------|-7----7----5--------|-7----7----5--------|-7----7----9--------|
Bb|-7----7----5--------|-7----7----5--------|-7----7----5--------|-7----7----9--------|
Gb|-9----8----6--------|-9----8----6--------|-9----8----6--------|-9----8----10-------|
Db|-9----9----7--------|-9----9----7--------|-9----9----7--------|-9----9----11-------|
Ab|-7----9----7--------|-7----9----7--------|-7----9----7--------|-7----9----11-------|
Eb|------7----5--------|------7----5--------|------7----5--------|------7----9--------|


Chorus 1

(Billy; Distorted)
eb|--------------------|--------------------|--------------------|---------------------|
Bb|--------------------|--------------------|--------------------|---------------------|
Gb|--------------------|--------------------|--------------------|----------------8----|
Db|-4----7----11-------|-4----7----11-------|-4----7----11-------|-4----7----6----8----|
Ab|-4----7----11-------|-4----7----11-------|-4----7----11-------|-4----7----6----6----|
Eb|-2----5----9--------|-2----5----9--------|-2----5----9--------|-2----5----4---------|

(James; Distorted)- same as Billy, except he adds that bend twice
eb|--------------------|--------------------|--------------------|---------------------|
Bb|--------------------|--------------------|--------------------|---------------------|
Gb|--------------11b13-|--------------------|--------------11b13-|----------------8----|
Db|-4----7----11-------|-4----7----11-------|-4----7----11-------|-4----7----6----8----|
Ab|-4----7----11-------|-4----7----11-------|-4----7----11-------|-4----7----6----6----|
Eb|-2----5----9--------|-2----5----9--------|-2----5----9--------|-2----5----4---------|


Verse 2

(Billy; Clean)- same as verse 1
eb|-7----7----5--------|-7----7----5--------|-7----7----5--------|-7----7----9--------|
Bb|-7----7----5--------|-7----7----5--------|-7----7----5--------|-7----7----9--------|
Gb|-9----8----6--------|-9----8----6--------|-9----8----6--------|-9----8----10-------|
Db|-9----9----7--------|-9----9----7--------|-9----9----7--------|-9----9----11-------|
Ab|-7----9----7--------|-7----9----7--------|-7----9----7--------|-7----9----11-------|
Eb|------7----5--------|------7----5--------|------7----5--------|------7----9--------|

(James; Clean)                               x3
eb|-----------------------------------------|
Bb|--------------9-10-----------12---10p9---|
Gb|-9---11---9---------9------9----9------9-|
Db|---9----9---9---------9------------------|
Ab|------------------------12---------------|
Eb|-----------------------------------------|

eb|-------------------------------------------------|
Bb|----------------------------------------14----14-|
Gb|-9---11---9---13p9----------------11/13----13----|
Db|---9----9---9------9--11-11-11-11----------------|
Ab|-------------------------------------------------|
Eb|-------------------------------------------------|


Chorus 2

(Billy & James; Distorted)
eb|---------------------|---------------------|---------------------|---------------------|
Bb|---------------------|---------------------|---------------------|---------------------|
Gb|----------------4----|----------------4----|----------------4----|----------------8----|
Db|-4----7----2----4----|-4----7----2----4----|-4----7----2----4----|-4----7----6----8----|
Ab|-4----7----2----2----|-4----7----2----2----|-4----7----2----2----|-4----7----6----6----|
Eb|-2----5----0---------|-2----5----0---------|-2----5----0---------|-2----5----4---------|


Interlude- "Today is, Today is!..."

(Billy; Distorted)
eb|---------------------|---------------------|---------------------|
Bb|---------------------|---------------------|---------------------|
Gb|------4--------------|------4--------------|-9-------------------|
Db|-2----4----2----7----|-2----4----2----7----|-9----9----11---7----|
Ab|-2----2----2----7----|-2----2----2----7----|-7----9----11---7----|
Eb|-0---------0----5----|-0---------0----5----|------7----9----5----|

(James; Distorted)                          x3
eb|----------------------------------------|
Bb|-9-9-9-9-9-9-9b10r9--9-9-9-9-9-9-9b10r9-|
Gb|----------------------------------------|
Db|----------------------------------------|
Ab|----------------------------------------|
Eb|----------------------------------------|


Mini Solo

(Billy; Distorted)
eb|--------------------|----------|
Bb|--------------------|----------|
Gb|-9------------------|----------|
Db|-9----9----11-------|-11-------|
Ab|-7----9----11-------|-11-------|
Eb|------7----9--------|-9--------|

(James; Distorted w/ wah pedal effects added in)
eb|-----------------------------------------------|----------------------------|
Bb|-9-9-9-9-9-9-9b10r9--9~~-----------------------|----------------------------|
Gb|------------------------10b11r10-10h11-8h10----|----------------------------|
Db|--------------------------------------------11-|-11h13p11\9~~~9h11-11b13r11-|
Ab|-----------------------------------------------|----------------------------|
Eb|-----------------------------------------------|----------------------------|


Bridge- "I wanna turn you on..."

(Billy; Distorted)                                                                       
eb|--------------------|--------------------|--------------------|-----------|
Bb|--------------------|--------------------|--------------------|-----------|
Gb|--------------------|--------------------|--------------------|-----------|
Db|-4----7----11-------|-4----7----11-------|-4----7----11-------|-4----7----|
Ab|-4----7----11-------|-4----7----11-------|-4----7----11-------|-4----7----|
Eb|-2----5----9--------|-2----5----9--------|-2----5----9--------|-2----5----|

(James; Distorted)- same as Billy, except he adds that bend twice                        
eb|--------------------|--------------------|--------------------|-----------|
Bb|--------------------|--------------------|--------------------|-----------|
Gb|--------------10b13-|--------------------|--------------10b13-|-----------|
Db|-4----7----11-------|-4----7----11-------|-4----7----11-------|-4----7----|
Ab|-4----7----11-------|-4----7----11-------|-4----7----11-------|-4----7----|
Eb|-2----5----9--------|-2----5----9--------|-2----5----9--------|-2----5----|


Outro

(Billy; Distorted)        x4 
eb|----------------------|
Bb|----------------------|
Gb|-9--------------------|
Db|-9----9----11----7----|
Ab|-7----9----11----7----|
Eb|------7----9-----5----|

eb|-------|
Bb|-------|
Gb|-9~~~~-|
Db|-9~~~~-|
Ab|-7~~~~-|
Eb|-------|

(James; Distorted)              x8 (Distorted)
eb|-12----14----12----16p12----|
Bb|----12----12----12-------12-|
Gb|----------------------------|
Db|----------------------------|
Ab|----------------------------|
Eb|----------------------------|

eb|-12~~~-|
Bb|-------|
Gb|-------|
Db|-------|
Ab|-------|
Eb|-------|


            
            
Suggest correction
Creating personal tab
Creating personal tab
You can edit any tab online and save it as your Personal.

You can edit, replace or remove any tab part or add personal notes – all changes will be seen only by you.

Personal tabs can be accessed anytime from any device, even offline.
Learn more »
Give kudos to tab author, rate the tab!
1 2 3 4 5
comments
print report bad tab
guest
Wanna post a correction for this tab? Suggest correction