Oops, an error
Loading. Please wait.

Where Boys Fear To Tread intro tab

version 1
version 1

Intro

Whole song

Interactive

4,384 views 6 this week
2 commentsread comments
1 2 3 4 5
x 6
add to favorites
×
Save as Personal and add changes to this tab that will be seen only by you. Learn more ›
×
You can save this tab as Personal to edit and correct it or add notes. All changes will be seen only by you. Learn more »
launch autoscroll
font size
0
reset
how to read this tab
guitar tuner
edit
Autoscroll
slow
fast
+/-
esc
set tempo
stop
-----------------------------------------------------------------------------
                             where boys fear to tread - smashing pumpkins
-----------------------------------------------------------------------------
Tabbed by:smokeymcpotb15b
Email:smokeymcpotb15@yahoo.com

Tuning:
Eb
Bb
Gb
Db
Ab
Eb

in the beggining they just use a bunch of feedback and stuff but the base of it is this
e|------------------------------------------------------------------|
B|------------------------------------------------------------------|
G|------------------------------------------------------------------|
D|------------------------------------------------------------------|
A|------------------------------------------------------------------|
E|10/-0-0-0-0-0-0-0-0-0-0-0-0-0-0-0-0-0-0-0-0-0-0-0-0-0-0-0-0-0-0-0-|


e|-----------------------------------------------------------|
B|-----------------------------------------------------------|
G|-----------------------------------------------------------|
D|-0---------------------------------------------------------|
A|-------------3---------------------------------------------|
E|---4-4-0-0-0--1-3-3-3-3-3-3-3-3----------------------------|

i think i got this part right, it sounds right to me, listen to the song to get the 
and timing down
e|------------------------------------------------------------|
B|------------------------------------------------------------|
G|------------------------------------------------------------|
D|-0----------------------------------------------------------|
A|-------------3----------------------------------------------|
E|---4-4-0-0-0--1-3-3-3-3-3-3-3-3-3-2-1-1-0-1-1-0-1-1-0-1-1-0-|

e|------------------------------------------------------------|
B|------------------------------------------------------------|
G|------------------------------------------------------------|repeat 3x
D|------------------------------------------------------------|
A|------------------------------------------------------------|
E|-3-2-1-1-0-1-1-0-1-1-0-1-1----------------------------------|


then it goes back to this
e|-----------------------------------------------------------|
B|-----------------------------------------------------------|
G|-----------------------------------------------------------|
D|-0---------------------------------------------------------|
A|-------------3---------------------------------------------|
E|---4-4-0-0-0--1-3-3-3-3-3-3-3-3----------------------------|

            
            
Suggest correction
Creating personal tab
Creating personal tab
You can edit any tab online and save it as your Personal.

You can edit, replace or remove any tab part or add personal notes – all changes will be seen only by you.

Personal tabs can be accessed anytime from any device, even offline.
Learn more »
comments
print report bad tab
2 comments total.
0 reply
dbruneau 10 Jul 21, 2008 05:49 PM

this is the whole song

0 reply
cooljew 153 Jul 22, 2008 04:33 PM

sounds right thanks for the nice work

guest
You may want to rate the tab now too:
select rating
Wanna post a correction for this tab? Suggest correction