Oops, an error
Loading. Please wait.

Zero tab

version 1
version 1

Whole song

73,743 views 84 this week
13 commentsread comments
1 2 3 4 5
x 25
add to favorites
×
Save as Personal and add changes to this tab that will be seen only by you. Learn more ›
×
You can save this tab as Personal to edit and correct it or add notes. All changes will be seen only by you. Learn more »
launch autoscroll
font size
0
reset
how to read this tab
guitar tuner
backing track
0:00
0:00
edit
Autoscroll
slow
fast
+/-
esc
set tempo
stop
Half-Step Down tuning

e|----------------------------------------------------|
B|----------------------------------------------------|
G|-5/4-4-4-------------5-5/4-4-4----------------------|
D|-x-x-x-x-------------x-x-x-x-x----------------------|
A|-3/2-2-2-------------3-3/2-2-2----------------------|
E|---------/2-3-3-4------------/2-3-3-4---------------|
           (^ ^ ^ ^ - hit those around that area 4 times)

(there is a harmonic here, you slide down to get the right sound, if you practice it then 
get it right, just listen closely to the sound.
Lightly touch your finger on the string and you`ll get that sound you want.)

e|-------------------------------------------------|
B|-------------------------------------------------|
G|----9-------11-------9-------12-----11b--11------|
D|----x-------x--------x--------x------x----0------|
A|----7-------9--------7-------10------9b---9------|
E|------0-0------0-0-----0-0------0-0------10------|

(it goes like this sometimes)
e|-------------------------------------------------|
B|-------------------------------------------------|
G|----9-------11-------9-------12-----11b--11/13---|
D|----x-------x--------x--------x------x----0/0----|
A|----7-------9--------7-------10------9b---9/11---|
E|------0-0------0-0-----0-0------0-0------10/12---|

(there is one part that goes something like this)
e|-------------------------------------------------|
B|-------------------------------------------------|
G|----9-----9-----9-----9-----11b--11--------------|
D|----x-----x-----x-----x------x---0---------------|
A|----7-----7-----7-----7------9b--9---------------|
E|------0-0---0-0---0-0---0-0-----10---------------|

(then there is another one of these with a pickslide at the end)
e|-------------------------------------------------|
B|-------------------------------------------------|
G|----9-------11-------9------12-----11b-11--------|
D|----x-------x--------x-------x------x---0--------|
A|----7-------9--------7------10------9b--9--------|
E|------0-0------0-0-----0-0------0-0----10----///-|

e|-------------------------------------------------|
B|-------------------------------------------------|
G|-------------------------------------------------|
D|-------------------------------------------------|
A|-3-----1-----33-----1----------------------------|
E|---1-3---000----1-3---000------------------------|  x2


************************************

| /  Slide up
| x  Dead note
| b  Bend

************************************

            
            
Suggest correction
Creating personal tab
Creating personal tab
You can edit any tab online and save it as your Personal.

You can edit, replace or remove any tab part or add personal notes – all changes will be seen only by you.

Personal tabs can be accessed anytime from any device, even offline.
Learn more »
comments
print report bad tab
13 comments total. Showing first comments.
0 reply
mr_magpie 10 Jul 30, 2005 08:00 PM

What about the riff under the solo? It sounds like the main riff but with a lot of extra notes.

0 reply
beetroot10 50 Nov 28, 2006 07:47 PM

souds good

0 reply
Tster 441 Jul 13, 2007 01:06 AM

ahhhh...
Alright.

guest
You may want to rate the tab now too:
select rating
Wanna post a correction for this tab? Suggest correction