Oops, an error
Loading. Please wait.

Ducks Fly Together tab

version 2
version 2

Whole song

  • This version is inferior to version 2.
1,963 views 27 this week
no commentswrite comment
1 2 3 4 5
x 6
add to favorites
×
Save as Personal and add changes to this tab that will be seen only by you. Learn more ›
×
You can save this tab as Personal to edit and correct it or add notes. All changes will be seen only by you. Learn more »
launch autoscroll
font size
0
reset
how to read this tab
guitar tuner
edit
Autoscroll
slow
fast
+/-
esc
set tempo
stop
Author
Difficulty
Tabbed by: Zacherbery
The Smith Street Band: http://thesmithstreetband.bandcamp.com/

I think i got most of it right but there are still a few gaps in the song I'm unsure of.
i used tab as a template so credit to him 

(Template for tab by: James Kent. E-mail: jawask@hotmail.com)

Tuning: E A D g b e



Intro/Guitar 1:
e |----------------------------------------------------------------------|
B |----------------------------------------------------------------------|
G |----------------------------------------------------------------------|
D |----------------------------------------------------------------------|
A |----------------------------------------------------------------------|
E |--(12)---(9)---(7)----(5)---------------------------------------------| x 20


Verse1/Guitar 2:
e |------------------------------------------------------------------------------------------|---------|
B |----------------------------------------------------------------------------------------o-|---(12)--|
G |------------------------------------------------------------------------------------------|---------|
D |-9-9---11-11--11----------9-9---11-11--7------------9-9---4-----------9-9-11-11-9-6-4-----|---------|
A |-7-7---9--9---11----------7-7---9--9---9------------7-7---2-----------7-7-9--9--7-4-2---o-|---------|
E |------------------------------------------------------------------------------------------|--x------|
  You woke me up...          Before your plane ...     I helped...       You kissed my forehead...


Chorus:
        C#      B    E                  F#      E
e |----------------------------    -----------------------------------|
B |----------------------------    -----------------------------------|
G |----------------------------    -----------------------------------|
D |----11-------9----2---------    ----4-------7----------------------|
A |----11-------9----2--------- x3 ----4-------7----------------------|
E |----9--------7----0---------    ----2-------5----------------------|

        I miss you but...               ... you can always stay


Verse 2/Guitar 1 :
e |----(7)---------------(7)-------------|------------------------------------|
B |-------(7)--(12)---------(7)--(12)----|------------------------------------|
G |--------------------------------------|------------------------------------|
D |--------------------------------------|------------------------------------|
A |--------------------------------------|------------------------------------|
E |--------------------------------------|---(12)--(9)--(7)--(5)--------------| x7

Verse 2/Guitar 2:
e |------------------------------------------------------------------------------------------|---------|
B |----------------------------------------------------------------------------------------o-|---(12)--|
G |------------------------------------------------------------------------------------------|---------|
D |-9-9---11-11--11-13-------9-9---11-11--7-7----------9-9---4-----------9-9-11-11-9-6-4-----|---------|
A |-7-7---9--9---11-13-------7-7---9--9---9-9----------7-7---2-----------7-7-9--9--7-4-2---o-|---------|
E |------------------------------------------------------------------------------------------|--x------|
  You woke me up...          Before your plane ...     I helped...       You kissed my forehead...



Bridge/Solo:

Haven't figured it out yet


Chorus:
        C#      B    E                  F#      E
e |----------------------------    -----------------------------------|
B |----------------------------    -----------------------------------|
G |----------------------------    -----------------------------------|
D |----11-------9----2---------    ----4-------7----------------------|
A |----11-------9----2--------- x3 ----4-------7----------------------|
E |----9--------7----0---------    ----2-------5----------------------|

        I miss you but...               ... you can always stay


Outro:

Same Chords as chours

Lyrics
------
Verse 1:
I got dry blood caked on my feet 
I got dye and dirt all over me 
I got twelve bucks, got ciggies 
But I've had good luck and I'm happy 
You woke me up before your plane left 
I helped you find your stuff, you kissed my forehead 
We trashed my room, broke my bed 
But I've had good luck and I'm happy. 

Chorus:
And I miss you but it feels good this way 
Let?s fall in love somewhere that you'll wanna stay 
I miss you but it?s nice for a change and 
You can always stay. 

Verse 2:
And we're as happy as ducks in a storm drain 
Somewhere off Dynon Road swimming in the rain 
You asked me if I was self-conscious 
I said of course I am, you took my clothes off.

Outro: 
And I was so scared to talk to your friends 
Pretended that I was a real person 
Trying to remember names, smiling and nodding 
But I couldn't kick the grin from when you'd gone and kissed me quickly in the kitchen. 
It's cool, you can crash in my room while I'm away.

            
            
Suggest correction
Creating personal tab
Creating personal tab
You can edit any tab online and save it as your Personal.

You can edit, replace or remove any tab part or add personal notes – all changes will be seen only by you.

Personal tabs can be accessed anytime from any device, even offline.
Learn more »
comments
print report bad tab
guest
You may want to rate the tab now too:
select rating
Wanna post a correction for this tab? Suggest correction