Oops, an error
Loading. Please wait.

How Soon Is Now bass

version 1
version 1

Whole song

Interactive

22,902 views 57 this week
3 commentsread comments
1 2 3 4 5
x 4
add to favorites
×
Save as Personal and add changes to this tab that will be seen only by you. Learn more ›
×
You can save this tab as Personal to edit and correct it or add notes. All changes will be seen only by you. Learn more »
launch autoscroll
font size
0
reset
guitar tuner
backing track
0:00
0:00
edit
Autoscroll
slow
fast
+/-
esc
set tempo
stop
Author
Difficulty
How Soon Is Now?
The Smiths 

Intro
G|---------------------------------|
D|---------------------------------|
A|-0-----0-0---0-------2---2-------|
E|---------------------------------|

Verse A and Verse B (Replace 2nd bar on the right)
G|---------------------------------|-------------------------------|  
D|---------------------4-----1h2---|---------------------1-----1h2-|  
A|---------------------------------|-------------------------------|  
E|-0---2---0---2-------------------|-0---2---0---2-----------------|  



G|---------------------------1h2---|
D|---------------------2-----------|
A|---------------------------------|
E|-0---2---0---2-------------------|

G|---------------------------------|-------------------------------|
D|---------------------4---2-------|-------------------------------|
A|---------------------------4-2---|-0-----0-0---0-------2---2-----|
E|-0---2---0---2-------------------|-------------------------------|

Chorus
G|---------------------------------|-------------------------------|
D|---------------------------------|-------------------------------|
A|-2-----2-----2/------5---5\------|-0-----0-----0/------7---7-----|
E|---------------------------------|-------------------------------|

G|---------------------------------|-------------------------------|
D|---------------------------------|-------------------------------|
A|-4-----4-----4/------7---7/------|-9\----------------------------|
E|---------------------------------|-----2---2---0-------2---2-----|

Post Chorus A
G|---------------------------------|-------------------------------|
D|-------------4-------4---2-------|---------------------1-----1h2-|
A|---------------------------4-2---|-------------------------------|
E|-0---2---------------------------|-0---2---0---2-----------------|

G|---------------------------------|-------------------------------|
D|---------------------4---2-------|-------------------------------|
A|---------------------------4-2---|-0-----0-0---0-------2---2-----|
E|-0---2---0---2-------------------|-------------------------------|

Post Chorus B
G|---------------------------------|-------------------------1h2---|
D|-------------4-------4---2-------|---------------------1h2-------|
A|---------------------------4-2---|-------------------------------|
E|-0---2---------------------------|-0---2---0---2-----------------|

G|-------------------------------|---------------------------------|
D|-------------------------------|---------------------------------|
A|------------------------0-2----|-0-----0-0---0-------2---2-------|
E|-0---2-------2-------2---------|---------------------------------|

Order:
[00:07] Intro
[00:10] Verse A 3x
[00:40] Chorus 2 x
[01:00] Post Chorus A
[01:10] Verse A

[01:21] Verse B 2x
[01:41] Chorus 2x
[02:01] Post Chorus B

[02:11] Verse B,A,B
[02:41] Chorus 2x (There's A Club...)
[02:59] Post Chorus A

[03:12] Verse B,A,A
[03:42] Chorus 2x (When you say...)
[04:02] Post Chorus A

[04:13] Verse A,A,B
[04:42] Chorus 2x (Skip Last Bar)
[05:00] [Rest]

[05:16] Verse A,A,A
[05:43] Chorus 2x
[06:00] Post Chorus A
[06:13] Verse A,A,A


            
            
Suggest correction
Creating personal tab
Creating personal tab
You can edit any tab online and save it as your Personal.

You can edit, replace or remove any tab part or add personal notes – all changes will be seen only by you.

Personal tabs can be accessed anytime from any device, even offline.
Learn more »
comments
print report bad tab
3 comments total.
0 reply
swave75 382 Jun 05, 2011 02:52 PM

My all time favorite song!!! Thanks for the bass tab!!!

0 reply
vixmanuel 10 Sep 30, 2013 12:11 PM

the songsterr one is wrong

0 reply
belowyourfeet 82 Sep 16, 2015 10:17 AM

A minor correction, but on the low E string on the verses it's just

G|-----------------
D|-----------------
A|-----------------
E|-0---2-------2---


In other words, no second open string note.

guest
You may want to rate the tab now too:
select rating
Wanna post a correction for this tab? Suggest correction