Oops, an error
Loading. Please wait.

Last Night I Dreamt That Somebody Loved Me tab

version 3
version 3

Whole song

  • Easier to read and understand than the other tabs available.

Interactive

190 views 3 this week
no commentswrite comment
1 2 3 4 5
2 more votes to show rating
add to favorites
×
Save as Personal and add changes to this tab that will be seen only by you. Learn more ›
×
You can save this tab as Personal to edit and correct it or add notes. All changes will be seen only by you. Learn more »
launch autoscroll
font size
0
reset
how to read this tab
guitar tuner
backing track
0:00
0:00
edit
Autoscroll
slow
fast
+/-
esc
set tempo
stop
About this tab version
Easier to read and understand than the other tabs available. Was this info helpful? Yes No
The Smiths - Last Night I Dreamt That Somebody Loved Me

Standard tuning - Capo 2


[Main guitar: 1.54 - end]

e|-8--------0--------------5--0--------|----------0--------6-----5-----------|
B|-------6-----6-----8--------------6--|-------6-----6-----6-----6--8-----6--|
G|----7-----------7-----7--------7-----|----7-----------7--7-----7--7-----7--|
D|-------------------------------------|-8-----------------------------------|
A|-------------------------------------|-------------------------------------|
E|-------------------------------------|-------------------------------------|

e|----------3--------4--------3--------|-0--------------------------0-------|
B|-2-----2-----2--------2--------2-----|----1-----------1--2-----------0-----|
G|-3--3-----------3--------3--------3--|-------0--------------0-----------0--|
D|-------------------------------------|-------------2-----------2-----------|
A|-------------------------------------|----------0--------------------------|
E|-------------------------------------|-------------------------------------| repeat



            
            
Suggest correction
Creating personal tab
Creating personal tab
You can edit any tab online and save it as your Personal.

You can edit, replace or remove any tab part or add personal notes – all changes will be seen only by you.

Personal tabs can be accessed anytime from any device, even offline.
Learn more »
Give kudos to tab author, rate the tab!
1 2 3 4 5
comments
print report bad tab
guest
You may want to rate the tab now too:
select rating
Wanna post a correction for this tab? Suggest correction