Oops, an error
Loading. Please wait.

Panic tab

version 2
version 2

Whole song

Interactive

7,051 views 6 this week
no commentswrite comment
1 2 3 4 5
x 3
add to favorites
×
Save as Personal and add changes to this tab that will be seen only by you. Learn more ›
×
You can save this tab as Personal to edit and correct it or add notes. All changes will be seen only by you. Learn more »
launch autoscroll
font size
0
reset
how to read this tab
guitar tuner
backing track
0:00
0:00
edit
Autoscroll
slow
fast
+/-
esc
set tempo
stop
Author
Unregistered
-------------------------------------------------------------------------------
                             Panic - Smiths
-------------------------------------------------------------------------------
Tabbed by: David K
Email: thischarmingman13@gmail.com

Tuning:Standard

Too many tracks to sift through, this is just the basic jist of it. 

Main acoustic line
e|---3----3--------3---0----3------------------------------------------------|
B|--5-5--3-33---3-3---0---0----0---------------------------------------------|
G|-5----4------------0---0----0----------------------------------------------|
D|-------------5-5--4---4----4-----------------------------------------------|
A|---------------------------------------------------------------------------|
E|---------------------------------------------------------------------------|
Incomplete, it's pretty basic to figure out
e|---------------------------------------------------------------------------|
B|---------------------------------------------------------------------------|
G|-5-12-7-10-10--12-12-11-9-9------------------------------------------------|
D|---------------------------------------------------------------------------|
A|-3-10-5--8-8---10-10--9-7-7------------------------------------------------|
E|---------------------------------------------------------------------------|
Intro bit
e|---------------------------------------------------------------------------|
B|-----------6---------------------------------------------------------------|
G|-5----7----7-10-12---------------------------------------------------------|
D|-5----7----8-10-12---------------------------------------------------------|
A|-3----5-------8-10---------------------------------------------------------|
E|---------------------------------------------------------------------------|


| /  slide up
| \  slide down
| h  hammer-on
| p  pull-off
| ~  vibrato
| +  harmonic
| x  Mute note
===============================================================================

            
            
Suggest correction
Creating personal tab
Creating personal tab
You can edit any tab online and save it as your Personal.

You can edit, replace or remove any tab part or add personal notes – all changes will be seen only by you.

Personal tabs can be accessed anytime from any device, even offline.
Learn more »
Give kudos to tab author, rate the tab!
1 2 3 4 5
comments
print report bad tab
guest
Wanna post a correction for this tab? Suggest correction