Oops, an error
Loading. Please wait.
We have an official Still Ill tab made by UG professional guitarists. Check out the tab »
×
6,582 views 1 this week
1 commentread comment
1 2 3 4 5
1 last vote to show rating
add to favorites
×
Save as Personal and add changes to this tab that will be seen only by you. Learn more ›
×
You can save this tab as Personal to edit and correct it or add notes. All changes will be seen only by you. Learn more »
launch autoscroll
font size
0
reset
how to read this tab
guitar tuner
backing track
0:00
0:00
edit
Autoscroll
slow
fast
+/-
esc
set tempo
stop
Author
Difficulty
-------------------------------------------------------------------------------
                             Still Ill
-------------------------------------------------------------------------------
Tabbed by: Wilde Childe
Email: JDHUGH1@AOL.COM

Tuning: Standard

I stumbled across the riff, or a simple version of it which I thought sounded reasonably 
although it is just the first bit which
runs through the verse.
I couldn't quite get the rest, but I figured it was better than nothing.
Lead Guitar

e|--------7------------------------------------------------------------------|
B|------5------5-5----7----5-S>--7---7------9-----11-------------------------|
G|----6-----6-------6----6-S>--8---8---9--9----11----------------------------|
D|---------------------------------------------------------------------------|
A|---------------------------------------------------------------------------|
E|---------------------------------------------------------------------------|

That’s as far as I could get with the lead guitar,
but the second guitar(which when Morrissey played the song on recent tours appeared to 
an acoustic played by Boz Boorer) and these are the chords,
if you know the song or see the live rendition you can get the hang of it.
Alternatively, you can capo at FOURTH fret and play the chords as put in brackets above 
barred version.
Rythym Guitar (Acoustic)

Verse "I decree today..."
   (Am) (F)  (G)   (F)  (G)
e|--4----5----7-----5----7-------------------------------------------------|
B|--5----5----7-----5----7-------------------------------------------------|
G|--6----6----8-----6----8-------------------------------------------------|
D|--6----7----9-----7----9-------------------------------------------------|
A|--4----7----9-----7----9-------------------------------------------------|
E|--4----5----7-----5----7-------------------------------------------------|

Pre-chorus “It just wasn’t like…”
  (Em (Am) (F)  (G)   (F)
e|-4---4----5----7-----5---------------------------------------------------|
B|-4---5----5----7-----5---------------------------------------------------|
G|-4---6----6----8-----6---------------------------------------------------|
D|-2---6----7----9-----7---------------------------------------------------|
A|-2---4----7----9-----7---------------------------------------------------|
E|-4---4----5----7-----5---------------------------------------------------|

Chorus "Am I still Ill..."
e|--4----5----7-----5----7-------------------------------------------------|
B|--5----5----7-----5----7-------------------------------------------------|
G|--6----6----8-----6----8-------------------------------------------------|
D|--6----7----9-----7----9-------------------------------------------------|
A|--4----7----9-----7----9-------------------------------------------------|
E|--4----5----7-----5----7-------------------------------------------------|

Hope this isn’t too bad as it’s my first attempt and I’m somewhat new to this, so I’ll 
in advance if it is terrible
-please don't be too harsh! The other versions on here seem good but I thought I may 
give it a shot.
Feel free to edit and correct as you see fit.

            
            
Suggest correction
Creating personal tab
Creating personal tab
You can edit any tab online and save it as your Personal.

You can edit, replace or remove any tab part or add personal notes – all changes will be seen only by you.

Personal tabs can be accessed anytime from any device, even offline.
Learn more »
Give kudos to tab author, rate the tab!
1 2 3 4 5
comments
print report bad tab
1 comment total.
0 reply
Omgiamcool:) 31 Sep 10, 2008 11:30 AM

Hey nice tab
If you wanna see the rest of that intro you did check out my tab for it
It's the still ill ver 3 one

guest
You may want to rate the tab now too:
select rating
Wanna post a correction for this tab? Suggest correction