Oops, an error
Loading. Please wait.

Stop Me If You Think Youve Heard This One Before bass

version 1
version 1

Whole song

  • The other versions all seemed wrong so it's based ... Show more
  • Based off of the isolated bass track: (https://www... Show more

Interactive

6,523 views 12 this week
3 commentsread comments
1 2 3 4 5
2 more votes to show rating
add to favorites
×
Save as Personal and add changes to this tab that will be seen only by you. Learn more ›
×
You can save this tab as Personal to edit and correct it or add notes. All changes will be seen only by you. Learn more »
launch autoscroll
font size
0
reset
guitar tuner
backing track
0:00
0:00
edit
Autoscroll
slow
fast
+/-
esc
set tempo
stop
Author
Difficulty
The Smiths - Stop Me if You Think You've Heard This One Before

Tabbed by Kevin Osborne


Intro

G|----------------------------------------------------------------------|
D|----------------------------------------------------------------------|
A|--3-3-3-3-3-3-3-3-------------------6-6-6-6-6-6-6-6--8-8-8-8-8-8-8-8--|
E|-------------------6-6-6-6-6-6-6-6------------------------------------|


G|----------------------------------------------------------------------|
D|----------------------------------------------------------------------|
A|----------------------------------------------------------------------|
E|--5-5-5-5-5-5-5-5--3-3-3-3-3-3-3-3------------------------------------|


G|----------------------------------------------------------------------|
D|----------------------------------------------------------------------|
A|--3-3-3-3-3-3-3-3-------------------6-6-6-6-6-6-6-6--8-8-8-8-8-8-8-8--|
E|-------------------6-6-6-6-6-6-6-6------------------------------------|


G|----------------------------------------------------------------------|
D|----------------------------------------------------------------------|
A|----------------------------------------------------------------------|
E|--5-5-5-5-5-5-5-5--3-3-3-3-3-3-3-3------------------------------------|

Verse / Chorus

G|------5---------------------------------------------------------------|
D|---------------------5--5--------1--------1------3--3-----------------|
A|-1/3-----------5---------------1--------1---1-------------------------|
E|-----------------3----------------------------1-----------------------|


Intrustmental


G|------------5------------------5---8---5--------------5---------------|
D|---------6-----6------------5-----------5----------6-----6------------|
A|-----6----------6-------3-----------------------6---------6-----------|
E|-4-------------------------------------------4------------------------|


G|----------------------------------------------------------------------|
D|----------------------------------------------------------------------|
A|----------------------------------------------------------------------|
E|----4/6--6-6-6----4-4-4--4/6--6-6-6-----------------------------------|


Outro

G|------5---------------------------------------------------------------|
D|---------------------5--5--------1--------1------3--3-----------------|
A|-1/3-----------5---------------1--------1---1-------------------------|
E|-----------------3----------------------------1-----------------------|


G|------5--------------------------------------------------------------|
D|---------------------5--5--------1--------1------3--3----------------|
A|-1/3-----------5---------------1--------1---1------------------------|
E|-----------------3----------------------------1----------------------|

							(Slowing Down)
G|---------------------------------------------------------------------|
D|---------------------------------------------------------------------|
A|---3-------------6-6-6-6-6-6-6-6----8-8-8-8-8-8-8-8------------------|
E|----------3------------------------------------------5-5-5-5-5-5-5-5-|

			     (Let last note ring)
G|---------------------------------------------------------------------|
D|---------------------------------------------------------------------|
A|---------------------------------------------------------------------|
E|---3--3--3--3--3--3--3--3----3---------------------------------------|


Structure

Intro	     x1

Verse/Chorus x4

Instrumental x1

Verse/Chorus x4

Instrumental x1

Verse/Chorus x4

Instrumental x1

Verse/Chorus x4

Outro	     x1

            
            
Suggest correction
Creating personal tab
Creating personal tab
You can edit any tab online and save it as your Personal.

You can edit, replace or remove any tab part or add personal notes – all changes will be seen only by you.

Personal tabs can be accessed anytime from any device, even offline.
Learn more »
Give kudos to tab author, rate the tab!
1 2 3 4 5
comments
print report bad tab
3 comments total.
0 reply
hkkhdsjkdshfakj 33 Jun 10, 2015 11:47 AM

Verse / Chorus

G|------5---5-------------------------------------------------------------|
D|----------------------5-5--------1---1------3---3-----------------------|
A|-1/3----3------3-5------------------1---1-------------------------------|
E|---------------------3-3--------1----------1---1------------------------|

0 reply
hkkhdsjkdshfakj 33 Jun 11, 2015 12:05 AM

Lack of accuracy. wrong tab, isn't right, 1 star, doesn't fit music, poor tab, the entire intro is completely wrong, just very wrong

+1 reply
Runtymunty 10 Jul 27, 2016 09:33 AM

Doesn't really fit, perhaps okay for a beginner play along, if you want a real tab version 2 is spot on.

guest
You may want to rate the tab now too:
select rating
Wanna post a correction for this tab? Suggest correction