Oops, an error
Loading. Please wait.

Well I Wonder tab

version 1
version 1

Whole song

Interactive

11,238 views 30 this week
4 commentsread comments
1 2 3 4 5
x 4
add to favorites
×
Save as Personal and add changes to this tab that will be seen only by you. Learn more ›
×
You can save this tab as Personal to edit and correct it or add notes. All changes will be seen only by you. Learn more »
launch autoscroll
font size
0
reset
how to read this tab
guitar tuner
backing track
0:00
0:00
edit
Autoscroll
slow
fast
+/-
esc
set tempo
stop
Difficulty
intermediate
watch 'well i wonder guitar cover' by davidguitarist91 on youtube for timing & 
struming patterns etcs

capo on second!!

intro:
e|---------------3---|
B|--1---2-----1--1---|
G|--2---3-----2--2---|
D|--2---3-----2--3---|
A|-------------------|
E|-------------------|
verse:
e|--1/0----------------------------------------|
B|--3/1-----3/0-------1/0-----1/0----3/1/3-----|
G|--------------------2/0-----2/2----4/2/4-----|
D|--2/2-----2/2-------2/2-----3/3----5/3/5-----|
A|--3/3-----2/2---------------3/3----5/3/5-----|
E|---------------------------------------------|
chorus:  (high pitched "well i wonder, please keep me in mind")
e|--1/0---------------------|
B|--3/3----1/0-----3/1/3----|
G|--2/2----2/2-----4/2/4----|  repeat x2, back to intro
D|---------3/3-----5/3/5----|
A|---------3/3-----5/3/5----|
E|--------------------------|

on the second chorus this is played
e|---------5----0---------|
B|-------6-------6--------|
G|-----7------7----7-5----|
D|------------------------|
A|------------------------|
E|------------------------|

instrumental part at end:

( not 100% sure of the picking pattern but the notes are pretty much right)
e|---------------------------------0-------0-------------|
B|------8----8-----------------0-------3-----------------|
G|----9-----9-------8--------0---0-------0---------------|
D|--7-----7-----7h9------------------5-------------------|
A|-------------------------------------------------------|
E|-------------------------------------------------------|

e|--------------------------------0------3------------------|
B|-------8----------------------3------1--------------------|
G|---------------9------------0------2--------2-------------|
D|----7--------7-----7----------------------3---------------|
A|--8--------8-----8----------------------------------------|
E|----------------------------------------------------------|

            
            
Suggest correction
Creating personal tab
Creating personal tab
You can edit any tab online and save it as your Personal.

You can edit, replace or remove any tab part or add personal notes – all changes will be seen only by you.

Personal tabs can be accessed anytime from any device, even offline.
Learn more »
comments
print report bad tab
4 comments total. Showing first comments.
+1 reply
whitherbottom 454 Sep 20, 2013 09:06 PM

you mistyped the intro. It should be
e|---------------3---|
B|--1---------1--1---|
G|--2---2-----2--2---|
D|--2---3-----2--3---|
A|------3------------|
E|-------------------|

0 reply
guvenrn 40 Dec 05, 2013 06:07 AM

great tab
I believe the second variation of the verse -which is 3/0- should be on high e string

0 reply
belowyourfeet 82 Sep 14, 2015 10:43 PM, edited on September 16 2015, 11:19 am

e|--0----------------|
B|--0----------------|
G|--0----------------|
D|--2----------------|
A|--0----------------|
E|-------------------|

On the part where he sings "ghasping, dying..." there's a nice little melody on the top strings.

e|--1/0---0-0---1/0---0-0-0-0-0--|
B|--3/1---0/3---1/1---1/1-0-1-0--|
G|--0-0---0-0---2/2---2/2-2-2-2--|
D|--2/2---2/2---2/2---3/3-3-3-3--|
A|--3/3---2/2---0-0---3/3-3-3-3--|
E|--------0/0---------1-1-1-1-1--|

The ending pattern is something like this (keep your pointy and middle finger in the same position and move your ringy and pinky as needed):

Pattern A:
e|-------------------------------------------------------|
B|------8-----8----------8---------8---------------------|
G|----9---9-----9----------------------------------------|
D|--7-------7-----7-9-10---10-9-10-----------------------|
A|-------------------------------------------------------|
E|-------------------------------------------------------|

Pattern B:
e|-------------------------------------------------------|
B|------8-----8------------------------------------------|
G|----9---9-----9-------9---10---9-----------------------|
D|--7-------7-----7-9-7---7----7-------------------------|
A|-------------------------------------------------------|
E|-------------------------------------------------------|

Pattern C:
e|-------------------------------------------------------|
B|------8-----8-------------8----------------------------|
G|----9---9-----9-------9-----9--------------------------|
D|--7-------7-----7-9-7---7------------------------------|
A|-------------------------------------------------------|
E|-------------------------------------------------------|

Pattern D:
e|-------------------------------------------------------|
B|------8-----8------------------------------------------|
G|----9---9-----9----------------------------------------|
D|--7-------7-----7-9-10----10-9-10----------------------|
A|-----------------------10---------10-------------------|
E|-------------------------------------------------------|

Play it in this order: A,B,A,C,A,C,D

The final chord is:
e|-------------------------------------------------------|
B|--8----------------------------------------------------|
G|--9----------------------------------------------------|
D|--7----------------------------------------------------|
A|--0----------------------------------------------------|
E|-------------------------------------------------------|

guest
Wanna post a correction for this tab? Suggest correction