Oops, an error
Loading. Please wait.

Rosemary chords

196 views 1 this week
no commentswrite comment
1 2 3 4 5
3 more votes to show rating
add to favorites
×
Save as Personal and add changes to this tab that will be seen only by you. Learn more ›
×
You can save this tab as Personal to edit and correct it or add notes. All changes will be seen only by you. Learn more »
launch autoscroll
font size
0
reset
transpose
0
reset
display chords
guitar tuner
edit
Autoscroll
slow
fast
+/-
esc
set tempo
stop
Author
Difficulty
Strumming
There is no strumming pattern for this song yet. and get +5 IQ
[Intro]

e|---12---11---9----------------12---11---9----------------------------------|
B|-9----7----5----------------9----7----5------------------------------------|
G|---------------------------------------------------------------------------|
D|---------------------------------------------------------------------------|
A|-----------------7--7-5-5-7-----------------7--7-5-5-7---------------------|
E|-----------------9--9-7-7-9-----------------9--9-7-7-9---------------------|

e|---12---15---16----------------16---15---12--------------------------------|
B|-9----10----12---------------12----10---9----------------------------------|
G|---------------------------------------------------------------------------|
D|---------------------------------------------------------------------------|
A|-----------------2--2-9-9-2-----------------7--7-5-5-7---------------------|
E|-----------------0--0-7-7-0-----------------9--9-7-7-9---------------------|


[Chorus]

                         C#m           Bm   Bm  C#m
I took a ring around to Rosie's, oh to make her mine
                    C#m         Bm   Bm C#m
I had a photo in a locket and a made up mind
                             E               B  B    E
I've been with this little pixie oh for the longest time
                              C#m
Her parents answered the door,
    Bm    Bm    C#m
And said "She's out."

[Verse 1]

                          C#m           Bm    Bm     C#m 
I said I'd wait up in her room and they said "that's fine,
                               C#m          Bm   Bm    C#m
She should be coming back from church, some time after nine."
                          E             B    B   E
I picked a pocket full of posies oh to pass the time
                      C#m                 Bm    Bm
Washed them down with holy water and some cheap red
E    B
Wine
      E         G#         C#m  C#m Bm Bm C#m     
Some wine, yeah yeah yeah

[Verse 2]

                         C#m           Bm   Bm   C#m 
I stared feeling kind of dizzy and the room went red
                            C#m               Bm Bm C#m 
I didn't know just what was real and what was in my head
                            E                       B  B    E 
I had to lie down on that floor 'cause that's what somebody said
                        C#m        Bm Bm  C#m
that's when I found a video under rosie's bed

[Bridge]


e|-------4------------------------------------------------------------------------------|
B|-----4--------------------------------------------------------------------------------|
G|---5----------------------------------------------------------------------------------|
D|-6------------------------------------------------------------------------------------|
A|--------------------------------------------------------------------------------------|
E|---------9-9-9-9-4-4-4-9----9-9-9-9-4-4-4-9----12-12-12-12-12-7--9----9-9-9-9-4-4-4-9-|

[Verse 3]

e|-----------------------------------------------------------|
B|-----------------------------------------------------------|
G|-----------------------------------------------------------|
D|-----------------------------------------------------------|
A|-----------------------------------------------------------|
E|-9-9-9-9-4-4-4-9----9-9-9-9-4-4-4-9----12-12-12-12-12-7--9-|

I put it in the picture's fuzzy

It seems to be some kind of party
  
And everybody's in from town

                     E             B
I thought I saw Rosemary fuck the devil
    E            G#           C#m    Bm Bm  C#m
was it the other way 'round?

[Chorus]

                         C#m           Bm   Bm  C#m
I took a ring around to Rosie's, oh to make her mine
                    C#m         Bm   Bm C#m
I had a photo in a locket and a made up mind
                             E               B  B    E
I've been with this little pixie oh for the longest time
                              C#m
Her parents answered the door,
    Bm    Bm    C#m
And said "She's out."

************************************

| x   Dead note
| g   Grace note
| (n) Ghost note
| h   Hammer-on
| p   Pull-off
| r   Release
| >   Accented note
| t   Tapping
| b   Bend
| br  Bend release
| pb  Pre-bend
| pbr Pre-bend release
| /   Slide up
| \   Slide down
| ~   Vibrato
| s   Slap
| P   Pop
| PM  Palm mute
| TR  Trill
| N   Tremolo

************************************

            
            
Suggest correction
Creating personal tab
Creating personal tab
You can edit any tab online and save it as your Personal.

You can edit, replace or remove any tab part or add personal notes – all changes will be seen only by you.

Personal tabs can be accessed anytime from any device, even offline.
Learn more »
Give kudos to tab author, rate the tab!
1 2 3 4 5
comments
print report bad tab
guest
You may want to rate the tab now too:
select rating
Wanna post a correction for this tab? Suggest correction