Oops, an error
Loading. Please wait.

Strychnine bass

7,319 views 3 this week
1 commentread comment
1 2 3 4 5
x 3
add to favorites
×
Save as Personal and add changes to this tab that will be seen only by you. Learn more ›
×
You can save this tab as Personal to edit and correct it or add notes. All changes will be seen only by you. Learn more »
launch autoscroll
font size
0
reset
guitar tuner
edit
Autoscroll
slow
fast
+/-
esc
set tempo
stop
Intro
G-------------5---|-----------------|
D-----1---5-------|-6-------5-3-----|
A-3---------------|-------------6-4-|
E-----------------|-----------------|

Main Riff / Verse
G---------------------------------|
D---------------------------------|
A-3-3-3-3---------1-1-1-1---------|
E---------4-4-4-4---------3-3-3-3-|

Chorus          x2                x2                x2
G-----------------|-----------------|-----------------|-----------------|
D-3-3-3-3-3-3-3-3-|-----------------|-3-3-3-3-3-3-3-3-|-5---------------|
A-----------------|-3-3-3-3-3-3-3-3-|-----------------|-----------------|
E-----------------|-----------------|-----------------|-----------------|

Bridge (Solo)   x4                x2                x2
G-----------------|-----------------|-----------------|-----------------|
D-----------------|-3-3-3-3-3-3-3-3-|-----------------|-5-5-5-5-5-5-5-5-|
A-3-3-3-3-3-3-3-3-|-----------------|-3-3-3-3-3-3-3-3-|-----------------|
E-----------------|-----------------|-----------------|-----------------|
                                  x2
G-----------------|-----------------|
D-3-3-3-3-3-3-3-3-|-----------------|
A-----------------|-3-3-3-3-3-3-3-3-|
E-----------------|-----------------|

**********************
Order                *
**********************
Intro      x1        *
Main Riff  x9        *
Chorus     x1        *
Bridge     x1        *
Chorus     x1        *
Main Riff  x12       *
**********************

            
            
Suggest correction
Creating personal tab
Creating personal tab
You can edit any tab online and save it as your Personal.

You can edit, replace or remove any tab part or add personal notes – all changes will be seen only by you.

Personal tabs can be accessed anytime from any device, even offline.
Learn more »
Give kudos to tab author, rate the tab!
1 2 3 4 5
comments
print report bad tab
1 comment total.
0 reply
meeeems 10 Dec 30, 2013 08:56 PM

Changed the "4" in the second part of the intro to a "5"

Intro
G-------------5---|-----------------|
D-----1---5-------|-6-------5-3-----|
A-3---------------|-------------6-5-|
E-----------------|-----------------|

Main Riff / Verse
G---------------------------------|
D---------------------------------|
A-3-3-3-3---------1-1-1-1---------|
E---------4-4-4-4---------3-3-3-3-|

Chorus x2 x2 x2
G-----------------|-----------------|-----------------|-----------------|
D-3-3-3-3-3-3-3-3-|-----------------|-3-3-3-3-3-3-3-3-|-5---------------|
A-----------------|-3-3-3-3-3-3-3-3-|-----------------|-----------------|
E-----------------|-----------------|-----------------|-----------------|

Bridge (Solo) x4 x2 x2
G-----------------|-----------------|-----------------|-----------------|
D-----------------|-3-3-3-3-3-3-3-3-|-----------------|-5-5-5-5-5-5-5-5-|
A-3-3-3-3-3-3-3-3-|-----------------|-3-3-3-3-3-3-3-3-|-----------------|
E-----------------|-----------------|-----------------|-----------------|
x2
G-----------------|-----------------|
D-3-3-3-3-3-3-3-3-|-----------------|
A-----------------|-3-3-3-3-3-3-3-3-|
E-----------------|-----------------|

**********************
Order *
**********************
Intro x1 *
Main Riff x9 *
Chorus x1 *
Bridge x1 *
Chorus x1 *
Main Riff x12 *
**********************

guest
You may want to rate the tab now too:
select rating
Wanna post a correction for this tab? Suggest correction