Oops, an error
Loading. Please wait.

From Can To Cant tab

version 1
version 1

Whole song

35,133 views 57 this week
10 commentsread comments
1 2 3 4 5
x 59
add to favorites
×
Save as Personal and add changes to this tab that will be seen only by you. Learn more ›
×
You can save this tab as Personal to edit and correct it or add notes. All changes will be seen only by you. Learn more »
launch autoscroll
font size
0
reset
how to read this tab
guitar tuner
edit
Autoscroll
slow
fast
+/-
esc
set tempo
stop
Corey Taylor/Dave Grohl/Scott Reeder/Rick Nielsen.
All their rights belong to them.
Standard tuning.
Capo fret 2.


[Verse 1]

e|-------------------------------------------------|
B|-------------------------------------------------|
G|---0-----0-----0-----0-----0-----0-----0-----0---|
D|-----2-----2-----2-----2-----2-----2-----2-----2-|
A|-------------------0-----3-----2-----1-----0-----|
E|-0-----2-----3-----------------------------------|x6

[Chorus]

e|-------------------------------------------------|
B|-------5-----------3---------0-----0-----0-----0-|
G|-----5---5-------2---------0-----0-----0-----0---|
D|---5-------5---4---------------------------------|
A|-3-----------5-----------------------------0-----|
E|-------------------------0-----2-----3-----------|x2
 
e|-------------------------------------------------------------------------|
B|-------5-----------3-----------------------------------------------------|
G|-----5---5-------2---------0-----0-----0-----0----0------0-----0-----0---|
D|---5-------5---4-------------2-----2-----2-----2-----2-----2-----2-----2-|
A|-3-----------5-----------------------------0-----------------------0-----|
E|-------------------------0-----2-----3-----------0-----2-----3-----------|

Heavy part. Play this with verse 1 in the background.

e|-----------------------------------|
B|-----------------------------------|
G|-------------------5---4-----------|
D|---2---4---5---7---5---4---7---5---|
A|---2---4---5---7---3---2---7---5---|
E|---0---2---3---5-----------5---3---|x4


[Heavy Chorus]

e|-------------------------------------------------------------------|
B|-------------------------------------------------------------------|
G|---5---4-------------------5---4-----------------------------------|
D|---5---4---2---4---5---7---5---4---2---4---5---7---2---4---5---7---|
A|---3---2---2---4---5---7---3---2---2---4---5---7---2---4---5---7---|
E|-----------0---2---3---5-----------0---2---3---5---0---2---3---5---|


Under solo, play this.

e|-----------------------------------|
B|-----------------------------------|
G|-----------------------------------|
D|---2---4---5---7---2---4---5---7---|
A|---2---4---5---7---2---4---5---7---|
E|---0---2---3---5---0---2---3---5---|x2


Heavy Chorus.
Verse, et cetera, et cetera.
Comments, corrections, and ratings are welcome.

            
            
Suggest correction
Creating personal tab
Creating personal tab
You can edit any tab online and save it as your Personal.

You can edit, replace or remove any tab part or add personal notes – all changes will be seen only by you.

Personal tabs can be accessed anytime from any device, even offline.
Learn more »
comments
print report bad tab
10 comments total. Showing first comments.
+4 reply
thony450 10 Apr 16, 2013 09:28 AM

After listening carefully to the intro picking I think there's a small mistake in your tab.

Here's what I think it should look like:

E|-------------------------------------------------|
B|-------------------------------------------------|
G|---0-----0-----0-----0-----0-----0-----0-----0---|
D|-----2-----2-----2-----2-----2-----2-----2-----2-|
A|-------------------0-----3-----2-----1-----0-----|
E|-0-----2-----3-----------------------------------|

Otherwise, great tab!

0 reply
guusxxx 10 Jun 25, 2013 09:07 AM

oeps sorry thony i want to like your corretion but i dissliked it sorry

+5 reply
InDreadResponse 10 Aug 13, 2013 01:47 PM

Hey guys :)

The second chord in the chorus is not a Bmin its actually a Dmaj.

Hope that helps

Chorus

E|-------------------------------------------------|
B|-------5-----------3---------0-----0-----0-----0-|
G|-----5---5-------2---2-----0-----0-----0-----0---|
D|---5-------5---4-------4-------------------------|
A|-3-----------5-----------------------------0-----|
E|-------------------------0-----2-----3-----------|

guest
You may want to rate the tab now too:
select rating
Wanna post a correction for this tab? Suggest correction