Oops, an error
Loading. Please wait.

Act Ii All Is Ash Or The Light Shining Through It bass

1,500 views 1 this week
no commentswrite comment
1 2 3 4 5
2 more votes to show rating
add to favorites
×
Save as Personal and add changes to this tab that will be seen only by you. Learn more ›
×
You can save this tab as Personal to edit and correct it or add notes. All changes will be seen only by you. Learn more »
launch autoscroll
font size
0
reset
guitar tuner
edit
Autoscroll
slow
fast
+/-
esc
set tempo
stop
Difficulty
intermediate
Act II: All Is Ash Or The Light Shining Through It

Bass tab.

I tried to tab this, using the guitar tab and following it. If the real part he plays is
differant I apologize, but this should get you through fine, and there isn't another
It's such a good song, so please if you can correct bits do, I dont mind at all. The 
is very important and some parts are tricky (intro and the ending are well frantic and odd)

You can play it higher if youd like, work that out yourself.

For the last part of each segment, you relaly need to just work out whatever because its
fast.

INTRO

X3

G-------------------------|
D-------------------------|
A---------7---5-5-8-8-7---|
E---5---5---------------5-|


G---------------------------------------------------------|
D---------------------------------------------------------|
A---------7---5-5-8-8-7----------------------------7-7-9--|
E---5---5---------------8-8-10-10-7--7-7-8-8-10-10--------|

X1

G-------------------------|
D-------------------------|
A---------7---5-5-8-8-7---|
E---5---5---------------5-|


G---------------------------------------------------------|
D---------------------------------------------------------|
A---------7---5-5-8-8-7------------------------------14~--|
E---5---5---------------8-8-10-10-7--10-10-8-8-7----------|

not sure if its right, the one of the guitars plays a differant part.

VERSE

nothing

Chorus

G------------------------|
D------------------------|
A--4-5----8-8---------4--|
E---------------5-5------|

G----------------------------------|
D----------------------------------|
A-5---5-5-5-5-5-5-5-5-----8------4-|
E----------------------------5-----|

G----------------------------------|
D----------------------------------|
A-5---5-5-5-5-5-5-5-5-----8------4-|
E----------------------------5-----|

The number of A-5 may be not be accurate.

VERSE

X2


G--------------------------------------------------------------------|
D--------------------------------------------------------------------|
A----555555555555555-8888888888888-777777777777777-6666666666666666--|
E--------------------------------------------------------------------|


CHORUS

G------------------------|
D------------------------|
A--4-5----8-8---------4--|
E---------------5-5------|

G----------------------------------|
D----------------------------------|
A-5---5-5-5-5-5-5-5-5-----8------4-|
E----------------------------5-----|

G----------------------------------|
D----------------------------------|
A-5---5-5-5-5-5-5-5-5-----8------4-|
E----------------------------5-----|

X3

G--------------------------|
D--------------------------|
A---5-5--5-5-5--4-4--5-5-5-|
E--------------------------|

G-----------------------|
D-----------------------|
A-------4---8-8--8-8-8--|
E--1-5------------------|

X3

G--------------------------|
D--------------------------|
A--5-5--8-8-8-------4-4-4--|
E--------------5-5---------|

G-----------------------------|
D-----------------------------|
A---------4-4-4--5-5-5--6-6-6-|
E--5-5-5----------------------|


SOLO

nothing

BRIDGE

G--------------------------------------------------------------|
D--------------------------------------------------------------|
A--555555555555----------------10-10-10-10-10-10-10-10-10-10---|
E----------------555555555555----------------------------------|

G---
D-7~
A-7~
E-5~


Work around those notes and change when appropriate

CHORUS

G------------------------|
D------------------------|
A--4-5----8-8---------4--|
E---------------5-5------|

G----------------------------------|
D----------------------------------|
A-5---5-5-5-5-5-5-5-5-----8------4-|
E----------------------------5-----|

G----------------------------------|
D----------------------------------|
A-5---5-5-5-5-5-5-5-5-----8------4-|
E----------------------------5-----|

X3

G--------------------------|
D--------------------------|
A---5-5--5-5-5--4-4--5-5-5-|
E--------------------------|

G-----------------------|
D-----------------------|
A-------4---8-8--8-8-8--|
E--1-5------------------|

new bit (frantic)

G--------------------------------|
D--------------------------------|
A---10--12--13---16-16-16-16-16--|
E--------------------------------|

G-------------------|
D------------17-18--|
A------17-18--------|
E-------------------|

ENDING

G--------------------------------|
D--------------------------------|
A--5-----12-12-12---10--8--7-7-7-|
E-----5--------------------------|

Thanks

inquisitor_taimos@hotmail.com if youd like to contact me. I would try and do chasing
as its the only one left, but its mega difficult to hear whats going on.

Taimos x.

            
            
Suggest correction
Creating personal tab
Creating personal tab
You can edit any tab online and save it as your Personal.

You can edit, replace or remove any tab part or add personal notes – all changes will be seen only by you.

Personal tabs can be accessed anytime from any device, even offline.
Learn more »
Give kudos to tab author, rate the tab!
1 2 3 4 5
comments
print report bad tab
guest
Wanna post a correction for this tab? Suggest correction