Oops, an error
Loading. Please wait.

All Over You bass

version 1
version 1

Whole song

Interactive

4,886 views 3 this week
3 commentsread comments
1 2 3 4 5
1 last vote to show rating
add to favorites
×
Save as Personal and add changes to this tab that will be seen only by you. Learn more ›
×
You can save this tab as Personal to edit and correct it or add notes. All changes will be seen only by you. Learn more »
launch autoscroll
font size
0
reset
guitar tuner
edit
Autoscroll
slow
fast
+/-
esc
set tempo
stop
Standard Tuning (guitar capo on 1st fret)

4/4 Time

::: ENJOY :::

Intro:
16 measures rest

Verse:
"i am easily, make believe..."
G|-------------------------------------|
D|-------------------------------------|
A|-0----0--0----0----------------------|
E|------------------1----1--1----1-----|

G|-------------------------------------|
D|-------------------------------------|
A|-3----3--3----2----------------------|
E|------------------1----1-1-1-1-------|

Chorus:
"I've gotta feel you in my bones again..."
G|-------------------------------------|
D|-------------------------------------|
A|-------------------------------------|
E|-33333333-55555555-1111111111111111--| x2

Pre-Verse 2:
G|---------------------------------------|
D|-------------------5-5-5-3-3-3-2-2-----|
A|---------------------------------------|
E|--5-5-5-5-5-5-5-5----------------------|

G|---------------------------------|
D|---------------------------------|
A|-3-3-3-3-3-3-3-3-3-3-3-3-3-3-3-3-|
E|---------------------------------|

Verse two:
"in my daydreams, in my sleep..."
G|-------------------------------------|
D|-------------------------------------|
A|-0----0--0----0----------------------|
E|------------------1----1--1----1-----|

G|-------------------------------------|
D|-------------------------------------|
A|-3----3--3----2----------------------|
E|------------------1----1-1-1-1-------|

"try, give it your best shot and..."
G|--------------------------------------------------------------|
D|--------------------------------------------------------------|
A|------------------3-(15x)-2-----------------------------------|
E|-5-(16x)-1-(16x)-------------11111111/13-13-13-13-13-13-13-13-|

Chorus 2:
"I've gotta feel you in my bones again..."
G|-------------------------------------|
D|-------------------------------------|
A|-------------------------------------|
E|-33333333-55555555-1111111111111111--| x2

"this life is way too short..."
G|---------------------------------------|
D|---------------------------------------|
A|-------------22-33-55-8888888888888888-|
E|-33333333-55---------------------------| x2

pause

bridge:
"why can't you just love me back..."
G|------------------------------------------------------------------|
D|------------------------------5-5-3-3-3-3-3-3-3-3-2-2-2-2-2-------|
A|------------------3-3-3-5-5-5--------------------------------5-3-2|
E|--5-5-5-5-5-5-5-5-------------------------------------------------| x3

G|---------------------------------------------------------------------|
D|------------------------------5-5-3-3-3-3-3-3-3-3-2-2-2-2-2----------|
A|------------------3-3-3-5-5-5--------------------------------5-3-2---|
E|--5-5-5-5-5-5-5-5--------------------------------------------------5-|

Chorus 3:
"I've gotta feel you in my bones again..."
G|-------------------------------------|
D|-------------------------------------|
A|-------------------------------------|
E|-33333333-55555555-1111111111111111--| x2

"this life is way too short..."
G|---------------------------------------|
D|---------------------------------------|
A|-------------22-33-55-8888888888888888-|
E|-33333333-55---------------------------| x2

end on:
G|------|
D|------|
A|------|
E|-5~---|

            
            
Suggest correction
Creating personal tab
Creating personal tab
You can edit any tab online and save it as your Personal.

You can edit, replace or remove any tab part or add personal notes – all changes will be seen only by you.

Personal tabs can be accessed anytime from any device, even offline.
Learn more »
Give kudos to tab author, rate the tab!
1 2 3 4 5
comments
print report bad tab
3 comments total.
+2 reply
rastabass 308 Apr 17, 2008 06:28 PM

finally a spill canvas bass tab!!! keep tabbing their songs, their bass player is really good

id tab some of their songs but i have been soooooo busy lately. Hopefully ill get around to playing your tab and rating it, but keep tabbin their songs

+2 reply
lilyeister 10 May 21, 2008 12:48 PM

pretty good tab

a bit of it is confusing but thank you for labeling and putting everything out

and very glad we finally have a spill canvas bass tab

+1 reply
JLanders09 277 Oct 17, 2008 09:41 PM

thanks. it's not confusing if you listen to it. this is exactly how he plays it, even live. so yeah, idk why someone rated it with 4 stars.

guest
You may want to rate the tab now too:
select rating
Wanna post a correction for this tab? Suggest correction