Oops, an error
Loading. Please wait.

All Over You tab

version 4
version 4

Interactive

61,405 views 1 this week
13 commentsread comments
1 2 3 4 5
x 8
add to favorites
×
Save as Personal and add changes to this tab that will be seen only by you. Learn more ›
×
You can save this tab as Personal to edit and correct it or add notes. All changes will be seen only by you. Learn more »
launch autoscroll
font size
0
reset
how to read this tab
guitar tuner
edit
Autoscroll
slow
fast
+/-
esc
set tempo
stop
-----------------------------------------------------------------------
                     All Over You - The Spill Canvas
-----------------------------------------------------------------------
Tabbed by: americanclassic
Contact: just send me a message on here

Chords used:

G - 32003x
Am7 - xx2010
C - x32010
F5* - 132000

     G    Am7    C    F5*
e|---------0-----0-----0---------------------|
B|---3-----1-----1-----0---------------------|
G|---0-----0-----0-----0---------------------|
D|---0-----2-----2-----2---------------------|
A|---2-----------3-----3---------------------|
E|---3-----------------1---------------------|


*I don't think this chord has a name so let's just call it F5 because
it's the closest to it that I could find.


Tuning: Standard, Capo I


Intro/Verse 1:

e|--------------------------------------------------------------------|
B|--------------------------------------------------------------------|
G|--------------------------------------------------------------------|
D|-2-2-2-2-2-2-2-2--5-5-5--3-3-3--2---3-3-3-3-3-3-3-3--2-2-2--0-0-0--2|
A|-0-0-0-0-0-0-2-2--0-0-0--0-0-0--0---3-3-3-3-3-3-3-3--3-3-3--3-3-3--3|
E|------------------------------------1-1-1-1-1-1-1-1--1-1-1--1-1-1--1|

e|--------------------------------------------------------------------|
B|--------------------------------------------------------------------|
G|--------------------------------------------------------------------|
D|-2-2-2-2-2-2-2-2--5-5-5--3-3-3--2---3-3-3-3-3-3-3-3--2-2-2--0-0-0--2|
A|-0-0-0-0-0-0-2-2--0-0-0--0-0-0--0---3-3-3-3-3-3-3-3--3-3-3--3-3-3--3|
E|------------------------------------1-1-1-1-1-1-1-1--1-1-1--1-1-1--1|

  Yeah he's a looker, but I really think it's guts that matter most.
e|--------------------------------------------------------------------|
B|--------------------------------------------------------------------|
G|--------------------------------------------------------------------|
D|-2-2-2-2-2-2-2-2--5-5-5--3-3-3--2---3-3-3-3-3-3-3-3--2-2-2--0-0-0--2|
A|-0-0-0-0-0-0-2-2--0-0-0--0-0-0--0---3-3-3-3-3-3-3-3--3-3-3--3-3-3--3|
E|------------------------------------1-1-1-1-1-1-1-1--1-1-1--1-1-1--1|

  I displayed them for you, strewn out about from coast to coast.
e|--------------------------------------------------------------------|
B|--------------------------------------------------------------------|
G|--------------------------------------------------------------------|
D|-2-2-2-2-2-2-2-2--5-5-5--3-3-3--2---3-3-3-3-3-3-3-3--2-2-2--0-0-0--2|
A|-0-0-0-0-0-0-2-2--0-0-0--0-0-0--0---3-3-3-3-3-3-3-3--3-3-3--3-3-3--3|
E|------------------------------------1-1-1-1-1-1-1-1--1-1-1--1-1-1--1|


2nd Part of Verse 1:

The strumming pattern is down, down, up, down, up, down.
*See bottom of page for more detailed instructions*

  I am easily make believe. Just dress me up in what you want me to be.
e|------------------------------------0--X----0--X--0--X--------------|
B|-0--X----0--X--0--X-----------------0--X----0--X--0--X--------------|
G|-0--X----0--X--0--X-----------------0--X----0--X--0--X--------------|
D|-2--X----2--X--2--X-----------------2--X----2--X--2--X--------------|
A|-0--X----0--X--0--X-----------------3--X----3--X--3--X--------------|
E|----X-------X-----X-----------------1--X----1--X--1--X--------------|

I'll take back what I've been saying for quite some time now.
e|------------------------------------0--X----0--X--0--0--0--0--------|
B|-3--X----3--X--3--X-----------------0--X----0--X--0--0--0--0--------|
G|-0--X----0--X--0--X-----------------0--X----0--X--0--0--0--0--------|
D|-0--X----0--X--0--X-----------------2--X----2--X--2--2--2--2--------|
A|-2--X----2--X--2--X-----------------3--X----3--X--3--3--3--3--------|
E|-3--X----3--X--3--X-----------------1--X----1--X--1--1--1--1--------|


Chorus 1:

G                Am7           C
I gotta feel you in my bones again.
C                  C
I'm all over you, I'm not over you.
G                 Am7       C
I wanna taste you one more time again.
C                  C
I'm all over you, I'm not over you.


Verse 2:

e|--------------------------------------------------------------------|
B|--------------------------------------------------------------------|
G|--------------------------------------------------------------------|
D|-2-2-2-2-2-2-2-2--5-5-5--3-3-3--2---3-3-3-3-3-3-3-3--2-2-2--0-0-0--2|
A|-0-0-0-0-0-0-2-2--0-0-0--0-0-0--0---3-3-3-3-3-3-3-3--3-3-3--3-3-3--3|
E|------------------------------------1-1-1-1-1-1-1-1--1-1-1--1-1-1--1|

 In my daydreams, in my sleep, infatuation turning into disease.
e|------------------------------------0--X----0--X--0--X--------------|
B|-0--X----0--X--0--X-----------------0--X----0--X--0--X--------------|
G|-0--X----0--X--0--X-----------------0--X----0--X--0--X--------------|
D|-2--X----2--X--2--X-----------------2--X----2--X--2--X--------------|
A|-0--X----0--X--0--X-----------------3--X----3--X--3--X--------------|
E|----X-------X-----X-----------------1--X----1--X--1--X--------------|

 You could cure me. See, all you have to do now is please
e|------------------------------------0--X----0--X--0--0--0--0--------|
B|-3--X----3--X--3--X-----------------0--X----0--X--0--0--0--0--------|
G|-0--X----0--X--0--X-----------------0--X----0--X--0--0--0--0--------|
D|-0--X----0--X--0--X-----------------2--X----2--X--2--2--2--2--------|
A|-2--X----2--X--2--X-----------------3--X----3--X--3--3--3--3--------|
E|-3--X----3--X--3--X-----------------1--X----1--X--1--1--1--1--------|

Am7                              F5
try, give it your best shot and try.
                        G
All I'm asking for is love,
                       F5
But you never seem to have enough.


Chorus 2:

G                Am7           C
I gotta feel you in my bones again.
C                  C
I'm all over you, I'm not over you.
G                 Am7       C
I wanna taste you one more time again.
C                  C
I'm all over you, I'm not over you.
G            Am7       C
This life is way too short
    C
To get caught up in all this stuff
     G                   Am7     C
When I just want you to love me back.
C                    C       G
Why can't you just love me back?


Bridge:
I'm pretty sure this is wrong, but I figured I'd include it anyway in
case it helps anyone figure out the real thing.

e|--------------------------------------------------------------------|
B|--------------------------------------------------------------------|
G|--------------------------------------------------------------------|
D|-2-2-2-2-2-2-2-2--5-5-5--3-3-3--2---3-3-3-3-3-3-3-3--2-2-2--0-0-0--2|
A|-0-0-0-0-0-0-2-2--0-0-0--0-0-0--0---3-3-3-3-3-3-3-3--3-3-3--3-3-3--3|
E|------------------------------------1-1-1-1-1-1-1-1--1-1-1--1-1-1--1|

 Why can't you just love me back?
e|--------------------------------------------------------------------|
B|--------------------------------------------------------------------|
G|--------------------------------------------------------------------|
D|-2-2-2-2-2-2-2-2--5-5-5--3-3-3--2---3-3-3-3-3-3-3-3--2-2-2--0-0-0--2|
A|-0-0-0-0-0-0-2-2--0-0-0--0-0-0--0---3-3-3-3-3-3-3-3--3-3-3--3-3-3--3|
E|------------------------------------1-1-1-1-1-1-1-1--1-1-1--1-1-1--1|

 Why can't you, why can't you, why can't you just love me back?
e|--------------------------------------------------------------------|
B|--------------------------------------------------------------------|
G|--------------------------------------------------------------------|
D|-2-2-2-2-2-2-2-2--5-5-5--3-3-3--2---3-3-3-3-3-3-3-3--2-2-2--0-0-0--2|
A|-0-0-0-0-0-0-2-2--0-0-0--0-0-0--0---3-3-3-3-3-3-3-3--3-3-3--3-3-3--3|
E|------------------------------------1-1-1-1-1-1-1-1--1-1-1--1-1-1--1|

 Why can't you, why can't you, why can't you just love me back?
e|--------------------------------------------------------------------|
B|--------------------------------------------------------------------|
G|--------------------------------------------------------------------|
D|-2-2-2-2-2-2-2-2--5-5-5--3-3-3--2---3-3-3-3-3-3-3-3--2-2-2--0-0-0--2|
A|-0-0-0-0-0-0-2-2--0-0-0--0-0-0--0---3-3-3-3-3-3-3-3--3-3-3--3-3-3--3|
E|------------------------------------1-1-1-1-1-1-1-1--1-1-1--1-1-1--1|

 Why can't you, why can't you, why can't you just love...
e|--------------------------------------------------------------------|
B|--------------------------------------------------------------------|
G|--------------------------------------------------------------------|
D|-2-2-2-2-2-2-2-2--5-5-5--3-3-3--2---3-3-3-3-3-3-3-3--2-2-2--0-0-0--2|
A|-0-0-0-0-0-0-2-2--0-0-0--0-0-0--0---3-3-3-3-3-3-3-3--3-3-3--3-3-3--3|
E|------------------------------------1-1-1-1-1-1-1-1--1-1-1--1-1-1--1|


Chorus 3:

G                Am7           C
I gotta feel you in my bones again.
C                  C
I'm all over you, I'm not over you.
G                 Am7       C
I wanna taste you one more time again...
Am7             C
Just one more time.
G            Am7       C
This life is way too short
    C
To get caught up and all mixed up
     G                   Am7     C
When I just want you to love me back.
C                    C      G
Why can't you just love me back?


Ending:

                                      Why won't you just love me back?
e|--------------------------------------------------------------------|
B|--------------------------------------------------------------------|
G|--------------------------------------------------------------------|
D|-2-2-2-2-2-2-2-2--5-5-5--3-3-3--2---3-3-3-3-3-3-3-3--2-2-2--0-0-0--2|
A|-0-0-0-0-0-0-2-2--0-0-0--0-0-0--0---3-3-3-3-3-3-3-3--3-3-3--3-3-3--3|
E|------------------------------------1-1-1-1-1-1-1-1--1-1-1--1-1-1--1|

                                      Why can't you just love me back?
e|-------------------------------------------------------------------0|
B|-------------------------------------------------------------------1|
G|-------------------------------------------------------------------0|
D|2-2-2-2-2-2-2-2--5-5-5--3-3-3--2--3-3-3-3-3-3-3-3--2-2-2--0-0-0--2-2|
A|0-0-0-0-0-0-2-2--0-0-0--0-0-0--0--3-3-3-3-3-3-3-3--3-3-3--3-3-3--3--|
E|----------------------------------1-1-1-1-1-1-1-1--1-1-1--1-1-1--1--|


______________________________________________________________________
*NOTE ABOUT THE VERSES*

I tabbed it so that you can use this specific strumming pattern: down,
down, up, down, up, down - which is how I play it. Also, I spaced it
out to indicate the rhythm. I'm not sure if this will make sense to
anyone, but it's like this:

(1) strum down - chord
(2) strum down - strings muted

THEN

(3) strum UP - chord
(4) strum down - strings muted
(5) strum UP - chord
(6) strum down - strings muted.


The way that Nick plays it is more complex. Check out this video to
watch how he does it: http://www.youtube.com/watch?v=IU5VV01n65s
_______________________________________________________________________


Enjoy!

            
            
Suggest correction
Creating personal tab
Creating personal tab
You can edit any tab online and save it as your Personal.

You can edit, replace or remove any tab part or add personal notes – all changes will be seen only by you.

Personal tabs can be accessed anytime from any device, even offline.
Learn more »
comments
print report bad tab
13 comments total. Showing first comments.
+1 reply
Mavvieg 10 Feb 02, 2008 05:36 AM

awesome tab dude. great job

+1 reply
CrowLord 51 Feb 17, 2008 08:41 AM

sounds good, except on all the youtube live vids they play it without a capo and dropped a step. Apart from that, its fantastic

+1 reply
Vanessa* 21 Mar 02, 2008 09:52 AM

Awesome! Awesome! (:

guest
You may want to rate the tab now too:
select rating
Wanna post a correction for this tab? Suggest correction