Oops, an error
Loading. Please wait.

All Over You tab

version 6
version 6

Interactive

6,358 views 1 this week
2 commentsread comments
1 2 3 4 5
1 last vote to show rating
add to favorites
×
Save as Personal and add changes to this tab that will be seen only by you. Learn more ›
×
You can save this tab as Personal to edit and correct it or add notes. All changes will be seen only by you. Learn more »
launch autoscroll
font size
0
reset
how to read this tab
guitar tuner
edit
Autoscroll
slow
fast
+/-
esc
set tempo
stop
The other acoustic tab for this just didnt look quite right to me so i made my own. I
you enjoy! Go to http://www.youtube.com/watch?v=2rHsPtTg9Z0&NR=1 to hear the strumming
=)

--------------------------------------------------------------|
--------------------------------------------------------------|
--------------------------------------------------------------|   X2
2-2-2-2-2-2-2-2-5-5-5-3-3-3-2-2---------------2-2-2-0-0-2-2-2-|
0-0-0-0-0-0-0-0-0-0-0-0-0-0-0-0-3-3-3-3-3-3-3-3-3-3-3-3-3-3-3-|
--------------------------------1-1-1-1-1-1-1-1-1-1-1-1-1-1-1-|


Yeah he's a looker...
--------------------------------------------------------------|
--------------------------------------------------------------|
--------------------------------------------------------------|
2-2-2-2-2-2-2-2-5-5-5-3-3-3-2-2---------------2-2-2-0-0-2-2-2-|
0-0-0-0-0-0-0-0-0-0-0-0-0-0-0-0-3-3-3-3-3-3-3-3-3-3-3-3-3-3-3-|
--------------------------------1-1-1-1-1-1-1-1-1-1-1-1-1-1-1-|

I displayed them for you...      Strewn out about...

0-0-0-0-0-0-0-0-0-0-0-0-0-0-0-0-0-0-0-0-0-0-0-0-0-0-0~|
1-1-1-1-1-1-1-1-1-1-1-1-1-1-1-1-1-1-1-1-1-1-1-1-1-1-0~|
0-0-0-0-0-0-0-0-0-0-0-0-0-0-0-0-0-0-0-0-0-0-0-0-0-0-0~|
2-2-2-2-2-2-2-2-2-2-2-2-2-2-2-2-2-2-2-2-2-2-2-2-2-2-3~|
3-3-3-3-3-3-3-3-3-3-3-3-3-3-3-3-3-3-3-3-3-3-3-3-3-3-3~|
----------------------------------------------------1~|


Am                         F
I am easily make believe
                                              C
Just dress me up in what you want me to be
                   F
I'll take back what I've been saying for quite some time now

Chorus

G              Am                C
I gotta feel ya in my bones again

C
I'm all over you, I'm not over you

G              Am                   C
I wanna taste you one more time again

C
I'm all over you, I'm not over you


--------------------------------------------------------------|
--------------------------------------------------------------|
--------------------------------------------------------------|
2-2-2-2-2-2-2-2-5-5-5-3-3-3-2-2---------------2-2-2-0-0-2-2-2-|
0-0-0-0-0-0-0-0-0-0-0-0-0-0-0-0-3-3-3-3-3-3-3-3-3-3-3-3-3-3-3-|
--------------------------------1-1-1-1-1-1-1-1-1-1-1-1-1-1-1-|

Verse 2

Am                           F
In my daydreams, In my sleep

F                                C
Infatuation turning into disease

C
You could cure me

F
See all you have to do now is please

Am
Try! Give it your best shot and

F
Try!

                     G
All I'm asking for is love

                      F
But you never seem to have enough


Chorus 2

G              Am                C
I gotta feel ya in my bones again

C
I'm all over you, I'm not over you

G              Am                   C
I wanna taste you one more time again

C
I'm all over you, I'm not over you

G             Am
This life is way to short

    C                                     G
To get caught up, and all mixed up when I

G              Am              C
Just want you to love me back

C
Why can't you just love me back?


Bridge

Am, G,

C                   A
Why cant you just love me back?

Am               G
why cant you? why cant you

C                    A
Why cant you just love me back?

Am                 G
Why can't you? why cant you?

C                    A
Why cant you just love me back?

Am                 G
Why can't you? why cant you?

                 A
Why can't you just love.. (2 MUTED STRUMS)


Repeat chorus 2

                               Why wont you...
--------------------------------------------------------------|
--------------------------------------------------------------|
--------------------------------------------------------------|
2-2-2-2-2-2-2-2-5-5-5-3-3-3-2-2---------------2-2-2-0-0-2-2-2-|
0-0-0-0-0-0-0-0-0-0-0-0-0-0-0-0-3-3-3-3-3-3-3-3-3-3-3-3-3-3-3-|
--------------------------------1-1-1-1-1-1-1-1-1-1-1-1-1-1-1-|

                              Why cant you...
--------------------------------------------------------------|
--------------------------------------------------------------|
--------------------------------------------------------------|
2-2-2-2-2-2-2-2-5-5-5-3-3-3-2-2---------------2-2-2-0-0-2-2-2-|
0-0-0-0-0-0-0-0-0-0-0-0-0-0-0-0-3-3-3-3-3-3-3-3-3-3-3-3-3-3-3-|
--------------------------------1-1-1-1-1-1-1-1-1-1-1-1-1-1-1-|

End on Am


There it is! All over you acoustic! Email me your suggestions!

            
            
Suggest correction
Creating personal tab
Creating personal tab
You can edit any tab online and save it as your Personal.

You can edit, replace or remove any tab part or add personal notes – all changes will be seen only by you.

Personal tabs can be accessed anytime from any device, even offline.
Learn more »
Give kudos to tab author, rate the tab!
1 2 3 4 5
comments
print report bad tab
2 comments total.
+1 reply
burninginferno 41 Jul 02, 2009 01:30 PM

it prob didnt look right because you wernt using a capo

0 reply
joeyjokester 10 Sep 29, 2010 02:31 PM

The verse is Am F5* Cadd9 F5*
the chorus is G6sus2 Am7 Fmaj7
the bridge: follow up the chorus with a downstroke of the G6sus2, then you do Am Cadd9 Dadd9 G6sus2 Fmaj7 Em.

Am             cadd9 
why can't you, why can't you?
Dadd9 G6sus2 Fmaj7 Em
why can't you just love me back

repeat....

Cadd9 = 032030
Dadd9 = xx0230
G6sus2 = 302030
fmaj7 = x03210
Em = 022000
Am = 002210
F5* = 132000

NOTE: I got this from a video where nick explains how to play this song, so this should be very accurate. The only thing I am not sure of is if the fmaj7 has the high E as well, and if the Am is Actually an Am7....

guest
Wanna post a correction for this tab? Suggest correction