Oops, an error
Loading. Please wait.

From San Francisco tab

389 views 1 this week
1 commentread comment
1 2 3 4 5
2 more votes to show rating
add to favorites
×
Save as Personal and add changes to this tab that will be seen only by you. Learn more ›
×
You can save this tab as Personal to edit and correct it or add notes. All changes will be seen only by you. Learn more »
launch autoscroll
font size
0
reset
how to read this tab
guitar tuner
edit
Autoscroll
slow
fast
+/-
esc
set tempo
stop
Author
Artist: The Spill Canvas
Song: From San Francisco
Album: Gestalt




Tuning: Half Step Down





eb|-----------------------------------------------------|
Bb|-----------------------------------------------------|
Gb|-------0-----------------------0---------------------|
Db|--2h4-----4--2--------0---2h4-----4--2-----2--4--2---|
Ab|----------------5--2--------------------5------------|
Eb|-----------------------------------------------------|


                                                         D

eb|---------------------------------------------------------|
Bb|------------------------------------------------------3--|
Gb|------------------------------------------------------2--|
Db|----------0--------0--2--0--2----------0-------0------0--|
Ab|-----0h2-----2--4-----------------0h2-----2--4----0------|
Eb|--3----------------------------3-------------------------|



Vers:

D
Inferno me my bridges
                                        G
I'm sure you two have a lot of catching up to do

Like me and you


D
So much for the truce
I swear you're awake ever time I blink
   G 
oh what's your new excuse?


Chorus:

                    Bm
Yeah, we don't talk anymore
   Em
and that's alright by me
                           A
Cause I don't know who you are
   D                G          D
Or who you expected me to be

                           eb|-------------------------|
                           Bb|-------------------------|
                           Gb|-------0-----------------|
                           Db|--2h4-----4--2--------0--|
                           Ab|----------------5--2-----|
                           Eb|-------------------------|


Vers:

D
You can't do much better
                                        G
and I can't do much worse so what's the point anyway?

Our love is rotten with decay


D
Used to be time when I couldn't tell the difference
                                G
Where I left off and you picked back up again

Now I can't comprehend




Chorus:

                    Bm
Yeah, we don't talk anymore
   Em
and that's alright by me
                           A
Cause I don't know who you are
   D                G
Or who you expected me to be



Bm                             Em
I messed up somewhere down the line (down the line)
      A
Now I can't be happy (now I can't be happy)
    D           G
Without being high


Solo:

    Bm                   Em

eb|-----------------------------------------|
Bb|-----------------------------------------|
Gb|--------7-------------------9------------|
Db|--7--9-----9--9--9----7--9-----9--9--9---|
Ab|-----------------------------------------|
Eb|-----------------------------------------|


   A                     D           G

eb|---------------------------------------------|
Bb|---------------------------------------------|
Gb|---------------------------------------------|
Db|--7--9--9---2--4--4----4--2------------------|
Ab|-----------------------------5--4------0--1--|
Eb|-----------------------------------3---------|


     Bm                         Em

eb|----------10-------------------------12--------------|
Bb|--10--12-------10--12--12----10--12------10--12--12--|
Gb|-----------------------------------------------------|
Db|-----------------------------------------------------|
Ab|-----------------------------------------------------|
Eb|-----------------------------------------------------|


    A                       G                D

eb|---------------------------------------------|
Bb|--10--12--12---5--7--7----7--5------------3--|
Gb|--------------------------------7--6------2--|
Db|--------------------------------------5---0--|
Ab|---------------------------------------------|
Eb|---------------------------------------------|




Chorus:

                    Bm
Yeah, we don't talk anymore
   Em
and that's alright by me
                           A
Cause I don't know who you are
   D                G
Or who you expected me to be



Bm                             Em
I messed up somewhere down the line (down the line)
      A
Now I can't be happy (now I can't be happy)
    D           G
Without being high



Outro:


    D

eb|-----------------------------------------------------|
Bb|-----------------------------------------------------|
Gb|-------0-----------------------0---------------------|
Db|--2h4-----4--2--------0---2h4-----4--2-----2--4--2---|
Ab|----------------5--2--------------------5------------|
Eb|-----------------------------------------------------|


    G

eb|-------------------------------------------------------|
Bb|-------------------------------------------------------|
Gb|-------------------------------------------------------|
Db|----------0--------0--2--0--2----------0-------0----0--|
Ab|-----0h2-----2--4-----------------0h2-----2--4----0----|
Eb|--3----------------------------3-----------------------|



Repeat until fade-out

            
            
Suggest correction
Creating personal tab
Creating personal tab
You can edit any tab online and save it as your Personal.

You can edit, replace or remove any tab part or add personal notes – all changes will be seen only by you.

Personal tabs can be accessed anytime from any device, even offline.
Learn more »
Give kudos to tab author, rate the tab!
1 2 3 4 5
comments
print report bad tab
1 comment total.
0 reply
sascolfer 10 Jan 07, 2014 04:37 AM

Good tab, any chance you can tab the rest of the solo that plays over the last chorus? thanks.

guest
You may want to rate the tab now too:
select rating
Wanna post a correction for this tab? Suggest correction