Oops, an error
Loading. Please wait.

Lullaby tab

version 2
version 2

Whole song

73,782 views 15 this week
16 commentsread comments
1 2 3 4 5
x 12
add to favorites
×
Save as Personal and add changes to this tab that will be seen only by you. Learn more ›
×
You can save this tab as Personal to edit and correct it or add notes. All changes will be seen only by you. Learn more »
launch autoscroll
font size
0
reset
how to read this tab
guitar tuner
edit
Autoscroll
slow
fast
+/-
esc
set tempo
stop
-------------------------------------------------------------------------------
                             lullaby - The Spill Canvas
-------------------------------------------------------------------------------
Tabbed by: Matt Davenport
Email:  tribal_@hotmail.co.uk

Tuning: Drop D (capo 2nd) the spill canvas play it in flat with a capo on 3rd

I had a look at the other tabs for this song, and they weren't quite there - close, but not quite.

I hope this is slightly closer :)

Intro:
e|-xx-x-xx-x-xx-x----------------------------------------------------------------|
B|-xx-x-xx-x-xx-x----------------------------------------------------------------|
G|-22-2-22-2-22-2----------------------------------------------------------------|
D|-44-4-44-4-44-4-2h4p2p0h2h4--44-4-44-4-44-4-44--44-4-44-4--55-5--7-------------|
A|-00-0-00-0-00-0--------------22-2-22-2-22-2-22--55-5-55-5--77-7--5-------------|
D|-00-0-00-0-00-0--------------22-2-22-2-22-2-22--55-5-55-5--77-7--0-------------|

Verse:
e|-xx-x-xx-x-xx-x---------xx-x-xx-x-xx-x-----------------------------------------|
B|-xx-x-xx-x-xx-x---------xx-x-xx-x-xx-x-----------------------------------------|
G|-22-2-22-2-22-2---------22-2-22-2-22-2-----------------------------------------|
D|-44-4-44-4-44-4-2-4-----44-4-44-4-44-4-44-4-44-4-44-4-44--44-4-44-4--55-5--7---|
A|-00-0-00-0-00-0---------00-0-00-0-00-0-22-2-22-2-22-2-22--55-5-55-5--77-7--5---|
D|-00-0-00-0-00-0-----4-0-00-0-00-0-00-0-22-2-22-2-22-2-22--55-5-55-5--77-7--0---|

Chorus:
e|-xx-x-xx-x-xx-x-xx-------------------------------------------------------------|
B|-xx-x-xx-x-xx-x-xx-----------------------------------------22-2----------------|
G|-22-2-22-2-22-2-xx-----------------------------------22-2--22-2----------------|
D|-44-4-44-4-44-4-xx---44-4-44--44-4-44--\----44-4-44--44-4--22-2----------------|
A|-00-0-00-0-00-0-xx---22-2-22--55-5-55---x3--22-2-22--00-0--00-0----------------|
D|-00-0-00-0-00-0-xx---22-2-22--55-5-55--/----22-2-22--00-0--00-0----------------|

Bridge:
e|-xxx-x-----------------------------------------xx------------------------------|
B|-xxx-x---------------------------------22-2-22-xx------------------------------|
G|-222-2----------------------22-2-22-2--22-2-22-xx------------------------------|
D|-444-4--44-4-44--44-4-44-4--44-4-44-4--22-2-22-xx------------------------------|
A|-000-0--22-2-22--55-5-55-5--00-0-00-0--00-0-00-xx------------------------------|
D|-000-0--22-2-22--55-5-55-5--00-0-00-0--00-0-00-xx------------------------------|

End on:
e|--------|
B|--------|
G|-2~-----|
D|-4~-----|
A|-0~-----|
D|-0~-----|

Intro
Verse x 2
Chorus
Intro
Verse x 2
Chorus
Bridge x 2
Chorus (Clean) x 2
End on


| /  slide up
| \  slide down
| h  hammer-on
| p  pull-off
| ~  vibrato
| +  harmonic
| x  Mute note
===============================================================================

            
            
Suggest correction
Creating personal tab
Creating personal tab
You can edit any tab online and save it as your Personal.

You can edit, replace or remove any tab part or add personal notes – all changes will be seen only by you.

Personal tabs can be accessed anytime from any device, even offline.
Learn more »
comments
print report bad tab
16 comments total. Showing first comments.
+1 reply
Serpant420 10 Nov 28, 2008 10:11 AM

Dude. If it's drop d, then there shouldn't be a low "E" string there. It should be tuned to "D"
Just saying... ;)

+1 reply
Serpant420 10 Nov 28, 2008 10:11 AM

Good though :)

0 reply
treeba 71 Jan 23, 2009 02:18 AM

whoops just noticed that sorry XD

guest
You may want to rate the tab now too:
select rating
Wanna post a correction for this tab? Suggest correction