Oops, an error
Loading. Please wait.

Night Will Go As Follows tab

version 1
version 1

Whole song

Interactive

5,483 views 6 this week
3 commentsread comments
1 2 3 4 5
x 3
add to favorites
×
Save as Personal and add changes to this tab that will be seen only by you. Learn more ›
×
You can save this tab as Personal to edit and correct it or add notes. All changes will be seen only by you. Learn more »
launch autoscroll
font size
0
reset
how to read this tab
guitar tuner
edit
Autoscroll
slow
fast
+/-
esc
set tempo
stop
Author
Difficulty
----------------------------------------------------------------------------
            The Night Will Go As Follows - The Spill Canvas
----------------------------------------------------------------------------



Tabbed by:MCiccone

Email:McDaddy0945@aol.com

  Yes finally im finishing my tab from the intro, thnx for all the emails,
srry it took so long. I rated this Advanced becuase you have to be able to
apply the chords i gave you to the song in the the right pattern, and you
have to be able to manipulate them with muting sounds to make the song sound
right....srry thats just how alot of the spill canvas songs are!

Tuning: Standard *Capo 2nd Fret

Go and check out my intro, i changed it and now its 100 %, im not going to
copy it in. Ok, I'm finishing the song for only the man guitar part, not the
background one like in the intro, srry


Verse 1:

e|---0---0---0---0-----0-0-0-0-0--------| 
B|---0---0---0---0-----0-0-0-0-0--------| 
G|---4-x-4-x-4-x-4-----2-2-2-2-2--------|
D|---6-x-6-x-6-x-6-----4-4-4-4-4--------|
A|--------------------------------------|
E|--------------------------------------|

     In A romantic...
     Experiment with my...
     And Every smile..
     Will be soaked...

Bridge 1:

e|----------------------------------------------0----|
B|----------------------------------------------0----|
G|--------------x---x---------------------------0----|
D|--------------x3h5x-5-x-5----9------7----7----7----|
A|--------------x3--x-3-x-3----7------5----5----5----|
E|----------------------------------------------x----|

   And then i'll say, is e_verything all right,
   
e|--------------0----------|
B|--------------0----------|
G|--------------0----------|
D|--------------5----------|
A|--------------3----------|
E|--------------x----------|

 Theres Been a few things.....

e|-----------------------------------------------0----|
B|-----------------------------------------------0----|
G|--------------x---x----------------------------0----|
D|--------------x3h5x-5-x-5----9-------7----7----7----|
A|--------------x3--x-3-x-3----7-------5----5----5----|
E|-----------------------------------------------x----|
 
  And She Will Say,      E-verythings just fine,

e|----------------------------------------------------------------------|
B|----------------------------------------------------------------------|
G|----------------------------------------------------------------------|
D|------------5---------------------------------------5/7---------------|
A|------------3---------------------------------------3/5---------------|
E|------------x---------------------------------------x-x---------------|

  So you can put an end to your worry and mine, and then..lips will collide

e|-----|        * You have to do a certain amount of improvising with the 
B|-----|          muting and strum pattern.
G|-----| 
D|--4~-| 
A|--2~-| 
E|--x--| 
    ^ End on
      this
      chord.

Chorus:

e|---x-0--------------------------------------0----------------------------|
B|---x-0--------------------------------------0----------------------------|
G|---x-4--------------------------------------2----------------------------|
D|---x-6--------------------------------------4----------------------------|
A|-------------------------------------------------------------------------|
E|-------------------------------------------------------------------------|

   The August Sky Will Then Bare Witness, To A Brand New Chapter With...
   When The Planets Allign, I Can___________Feel The Gates Opening To My
   Courage As I____________________________Proceed To Run My Fingers....
   And Forget Everyone One Whose____________Jaded, Cause They Dont....

Bridge 2:

e|-----------0-------0-------|     *Guitar 2 plays my intro fills here
B|-----------0-------0-------|
G|--0-2-2/4--4-------2-------|
D|------4/6--6-------4-------|
A|---------------------------|
E|---------------------------| x4


Verse 2:

e|---0---0---0---0-----0-0-0-0-0--------| 
B|---0---0---0---0-----0-0-0-0-0--------| 
G|---4-x-4-x-4-x-4-----2-2-2-2-2--------|
D|---6-x-6-x-6-x-6-----4-4-4-4-4--------|
A|--------------------------------------|
E|--------------------------------------|

    In a confident...
    Admit my ....
    And every gaze...........Will send my,
    Unsuspecting body....

Bridge 3:

e|----------------------------------------------0----|
B|----------------------------------------------0----|
G|--------------x---x---------------------------0----|
D|--------------x3h5x-5-x-5----9------7----7----7----|
A|--------------x3--x-3-x-3----7------5----5----5----|
E|----------------------------------------------x----|

  And Then Ill Say, Would.....To Go   In-Side
   
e|--------------0----------|
B|--------------0----------|
G|--------------0----------|
D|--------------5----------|
A|--------------3----------|
E|--------------x----------|

         And Forget The World...

e|-----------------------------------------------0----|
B|-----------------------------------------------0----|
G|--------------x---x----------------------------0----|
D|--------------x3h5x-5-x-5----9-------7----7----7----|
A|--------------x3--x-3-x-3----7-------5----5----5----|
E|-----------------------------------------------x----|
 
 And She Will Say,  Theres Nothing I  Want  Mo_____re
e|------------------------------------------------------------------------|
B|------------------------------------------------------------------------|
G|------------------------------------------------------------------------|
D|------------5-----------------x-5---------------------5/7---------------|
A|------------3-----------------x-3---------------------3/5---------------|
E|------------x-----------------x-x---------------------x-x---------------|

        As We Step Into The Room Turn Off The Lights And Close The Door.

e|-----|        
B|-----|          
G|-----| 
D|--4~-| 
A|--2~-| 
E|--x--| 
    ^ End on
      this
      chord.

Chorus:

e|---x-0--------------------------------------0----------------------------|
B|---x-0--------------------------------------0----------------------------|
G|---x-4--------------------------------------2----------------------------|
D|---x-6--------------------------------------4----------------------------|
A|-------------------------------------------------------------------------|
E|-------------------------------------------------------------------------|

   The August Sky Will Then Bare Witness, To A Brand New Chapter With...
   When The Planets Allign, I Can___________Feel The Gates Opening To My
   Courage As I____________________________Proceed To Run My Fingers....
   And Forget Everyone One Whose____________Jaded, Cause They Dont....
   No They Dont Matter And I Dont____________Care


Outro:

*This Deffinitly took me forever, i hope you can make it sound right

Part 1: *This is the slower part, play softly 

e|--------------------------------------------0---| * Just mess around with
B|------------------------------0----0----0---0---| that chord at the end
G|--------------x---x---------0-----0-----0---0---| while your still singing
D|--------------x3h5x-5-x---9------7-----5----5---|
A|--------------x3--x-3-x--7------5-----3-----3---|
E|--------------------------------------------x---|

                       Brash and Hopefull___
                       And Many Over...
                       

e|------------------------------------0--0-------| *Once again, mess around 
B|---------------------------------0--0--0-------| with that last chord, I 
G|--------------x---x-------------0-0-0--0-------| promise you that all 
D|--------------x3h5x-5-x--------7----7--5-------| these notes are hear!
A|--------------x3--x-3-x-------5-----5--3-------|
E|------------------------------------x--x-------|

                 My__Luck Wont Parish Tonight.
       Its Just Slow Motion....Warm On My Neck That Keeps Me Alive.

Part 2: *Nick does the louder version here
    
e|--------------------------------------------------------------------|
B|--------------------------------------------------------------------|
G|--------------------------------------------------------------------|
D|--5---7------------9---x-----5---------------7------------5---------|
A|--3---5------------7---x-----3---------------5------------3---------|
E|--x---x------------x---x-----x---------------x------------x---------|

       Brash and Hopefull, That My Luck Won't Parish Tongiht.
  And...Over Cast...Me........................Warm........ Neck...Me Alive.

^ You have to really work on the timing up there, theres alot of muting and
stuff that i could never explain, its kind of tuff you just have to improvise,
unforunately the second guitar adds alot to this part but I am not tabbing all
that out, plus even if i did most peopel wont use it, sorry!

Part 3:

e|---0---0---0---0-----0-0-0-0-0----0-------------------------0---------| 
B|---0---0---0---0-----0-0-0-0-0----0-------------------------0---------| 
G|---4-x-4-x-4-x-4-----2-2-2-2-2--x-2-----------------------x-2---------|
D|---6-x-6-x-6-x-6-----4-4-4-4-4--x-2-----------------------x-2---------|
A|----------------------------------------------------------------------|
E|----------------------------------------------------------------------|

     Consider this....Devotion to...Be Completly Honest, Your Not Like...

Part 4:

e|-----0---------| * Nick messes around with this, theres no way to actually
B|-----0---------| tab out the sounds he makes here, you have to mess around
G|---x-2---------| with the chord and the palm mutting, but this is the only
D|---x-2---------| chord he uses, i promise
A|---------------|
E|---------------| x3

 O No Your....

End on this:

e|-----0----|
B|-----0----|
G|-----2----|
D|-----2----|
A|----------|
E|-0*-------|   END
   ^ Let Ring

Ok Good Luck guys! all these chords are right, you just have to be able to make it fit the song!



            
            
Suggest correction
Creating personal tab
Creating personal tab
You can edit any tab online and save it as your Personal.

You can edit, replace or remove any tab part or add personal notes – all changes will be seen only by you.

Personal tabs can be accessed anytime from any device, even offline.
Learn more »
Give kudos to tab author, rate the tab!
1 2 3 4 5
comments
print report bad tab
3 comments total.
0 reply
goth clash 290 May 01, 2006 09:31 AM

good, but the capo should be on the 1st fret dude

0 reply
ForeverEntrapt 10 May 12, 2008 07:26 PM

Hey im not very good at this but try playing this for guitar 2 and lemme know what you think please.
E---------0
B---------0
G---------4
D-2h4/6---6
A---------X
E---------X
And then jump right into the same strumming pattern you have. Yours sounds good, but this sounds better to me.

0 reply
ForeverEntrapt 10 May 12, 2008 07:27 PM

Hey im not very good at this but try playing this for guitar 2 and lemme know what you think please.
E---------0
B---------0
G---------4
D-2h4/6---6
A---------X
E---------X
And then jump right into the same strumming pattern you have. Yours sounds good, but this sounds better to me.

Also the first fret capo is definitely right too

guest
You may want to rate the tab now too:
select rating
Wanna post a correction for this tab? Suggest correction