Oops, an error
Loading. Please wait.

Take One Breath tab

2,983 views 1 this week
2 commentsread comments
1 2 3 4 5
1 last vote to show rating
add to favorites
×
Save as Personal and add changes to this tab that will be seen only by you. Learn more ›
×
You can save this tab as Personal to edit and correct it or add notes. All changes will be seen only by you. Learn more »
launch autoscroll
font size
0
reset
how to read this tab
guitar tuner
edit
Autoscroll
slow
fast
+/-
esc
set tempo
stop
Artist: Spill Canvas
Title: Take one breath
Album: n/a

Tabbed by captain_crunch8

This is a tablature in response to the Youtube video labbled "Spill Canvas Acoustic".
I decided to dig this puppy up and throw it up seeing that there were many
interested viewers looking for a tab.
NOTE, that the intro is how i would play it, not necessarily the best way to. I was bit 
lazy on this one so you'll have to figure out the strumming pattern.
Please comment with understandable corrections. Enjoy.

The video can be found at http://www.youtube.com/watch?v=3qUOwd2opTo&feature=related

Standard - Capo 2


Intro x2

e---x-0-------------------x-0-------------|
B---x-0-------5/8---------x-0-------------|
G---x-0-----5-----7/5-----x-2-2h4p2-------|
D---x-2-2/5-----------5---x-2-------5/4/5-|
A---x-2-------------------x-0-------------|
E---x-0-------------------x-x-------------|


Verse x2

e---0---0---0--0----0----0---0---0---0----|
B---0---0---0--0----0----0---0---0---0----|
G---0---0---0--0----0----0---0---0---2----|
D---2---0---2--0h2--2----2---0---2---2----|
A---2---2---3--3----3----2---2---3---0----|
E---0---3---x--x----x----0---3---x---x----|


Pre Chorus x1

e---0---0---0---0---0---|
B---0---0---0---0---0---|
G---2---0---2---0---0---|
D---2---2---2---2---4---|
A---0---3---0---3---5---|
E---x---x---x---x---x---|


Chorus x2

e---0---0---0---0---|
B---0---0---0---0---|
G---9---7---5---2---|
D---9---7---5---2---|
A---7---5---3---0---|
E---0---x---x---x---|


Fill x2

e---x-0-------------------x-0-------------|
B---x-0-------5/8---------x-0-------------|
G---x-0-----5-----7/5-----x-2-2h4p2-------|
D---x-2-2/5-----------5---x-2-------5/4/5-|
A---x-2-------------------x-0-------------|
E---x-0-------------------x-x-------------|


Verse x2

e---0---0---0--0----0----0---0---0---0----|
B---0---0---0--0----0----0---0---0---0----|
G---0---0---0--0----0----0---0---0---2----|
D---2---0---2--0h2--2----2---0---2---2----|
A---2---2---3--3----3----2---2---3---0----|
E---0---3---x--x----x----0---3---x---x----|


Pre Chorus x1

e---0---0---0---0---0---|
B---0---0---0---0---0---|
G---2---0---2---0---0---|
D---2---2---2---2---4---|
A---0---3---0---3---5---|
E---x---x---x---x---x---|


Chorus x2

e---0---0---0---0---|
B---0---0---0---0---|
G---9---7---5---2---|
D---9---7---5---2---|
A---7---5---3---0---|
E---0---x---x---x---|


Bridge x1

e---0---0---0---0---0---0---0---0---0---0---|
B---0---0---0---0---0---0---0---0---0---0---|
G---0---0---0---0---0---0---0---2---0---2---|
D---4---2---4---2---4---2---4---2---2---2---|
A---5---3---5---3---5---3---5---0---3---0---|
E---x---x---x---x---x---x---x---x---x---x---|


Chorus x2

e---0---0---0---0---|
B---0---0---0---0---|
G---9---7---5---2---|
D---9---7---5---2---|
A---7---5---3---0---|
E---0---x---x---x---|


End on

e---0---|
B---0---|
G---0---|
D---2---|
A---2---|
E---0---|

            
            
Suggest correction
Creating personal tab
Creating personal tab
You can edit any tab online and save it as your Personal.

You can edit, replace or remove any tab part or add personal notes – all changes will be seen only by you.

Personal tabs can be accessed anytime from any device, even offline.
Learn more »
Give kudos to tab author, rate the tab!
1 2 3 4 5
comments
print report bad tab
2 comments total.
0 reply
KCKC2424 10 Sep 01, 2008 02:13 PM

first, i think the verses leading into the pre-chorus should end on
e-0-
B-0-
G-0-
D-4-
A-5-
E-x-

And the pre-chorus should have this (Am)
e---
B-1-
G-2-
D-2-
A---
E---

in replacement for A.. basically just adding the one note on the B string

+1 reply
tifosichris 10 Jan 12, 2009 09:03 AM

I think the intro is off. Its more like

e---x-0-------------------x-0-------------|
B---x-0-------5/8--------x-0------------|
G---x-0-----4-----7/5p0--x-2-2h4p20-0---|
D---x-2-2/5--------------x-2-------5----|
A---x-2------------------x-0------------|
E---x-0------------------x-x------------|

(sorry if thats written wrong, its my first time tabbing something)

I THINK my intro is more accurate. I could be wrong but it sounds better that way. I've bought scraps and i'll digitize it when it arrives so then we can hear it clearer

guest
You may want to rate the tab now too:
select rating
Wanna post a correction for this tab? Suggest correction