Oops, an error
Loading. Please wait.

Tide tab

version 4
version 4

Interactive

3,948 views 1 this week
6 commentsread comments
1 2 3 4 5
x 4
add to favorites
×
Save as Personal and add changes to this tab that will be seen only by you. Learn more ›
×
You can save this tab as Personal to edit and correct it or add notes. All changes will be seen only by you. Learn more »
launch autoscroll
font size
0
reset
how to read this tab
guitar tuner
edit
Autoscroll
slow
fast
+/-
esc
set tempo
stop
-------------------------------------------------------------------------------
     THE TIDE - The Spill Canvas
-------------------------------------------------------------------------------
Tabbed by: Kevin V.
Email: Kevin_verluyten@hotmail.com

Guitar 1-capo on 2 ,normal tuning

Intro/Verse
			Vp1   Vp2
e|-x-x------0------0-0--|--0--|--------------------------------------------|
B|-x-x------0------0-0--|--0--|--------------------------------------------|
G|-x-x--4/7-7--4/7-7-7--|--5--|--------------------------------------------|
D|-x-x--X---5--X---5-7--|--5--|-----0-5\4-0-5------------------------------|
A|-x-x--2/5-7--2/5-7-5--|--3--|-2/3----------------------------------------|
E|-x-x-0----X-0----X-X--|--X--|--------------------------------------------|

BRIDGE
B
e|-0-0-0-3-3-0-------------------------------------------------------------|
B|-0-0-0-3-3-5-------------------------------------------------------------|
G|-7/9-9-0-2-x-------------------------------------------------------------|
D|-7/9-9-0-0-5-------------------------------------------------------------|
A|-5/7-7-2-0-3-------------------------------------------------------------|
E|-----8-3-2---------------------------------------------------------------|

Chorus
C
e|------0--0---0-0-0--------------------------------------------------------|
B|------0--0---0-5-0--------------------------------------------------------|
G|--4/7-7--9-4-7-X-4--------------------------------------------------------|
D|--X-X-5--9-5-7-5-4--------------------------------------------------------|
A|--2/5-7--7-5-5-3-2--------------------------------------------------------|
E|-0----X--8-3-X------------------------------------------------------------|

Interlude
I
e|-0-----------------------------------------------------------------------|
B|-0-----------------------------------------------------------------------|
G|-7-----------------------------------------------------------------------|
D|-5-----0-5\4-0-5---------------------------------------------------------|
A|-7-2/3-------------------------------------------------------------------|
E|-------------------------------------------------------------------------|

Ending
E
e|-0-0-0-0-0-0-0-----------------------------------------------------------|
B|-0-0-0-0-0-0-0-----------------------------------------------------------|
G|-7-7-5-7-7-5-4-----------------------------------------------------------|
D|-5-7-5-5-7-5-4-----------------------------------------------------------|
A|-7-5-3-7-5-3-2-----------------------------------------------------------|
E|-------------------------------------------------------------------------|



Guitar 2-capo on 2 ,normal tuning

Chorus
C					fourth time
e|------------------|------------------|-------------------------------------|
B|----12------------|------12-14-12----|-14--12------------------------------|
G|------13/14-13-11-|x2-------------14-|---11--11-14-13-11-------------------|
D|--11--------------|----11------------|-------------------------------------|
A|-9----------------|---9--------------|-------------------------------------|
E|------------------|------------------|-------------------------------------|

Ending
E
e|----------------------|-----------------------------------------|-------|
B|-14-12----12----------|-------------------14-12----12-----------|-------|
G|-------14----14-------|-x2---11--13-11----------14----14--------|x6-----|
D|----------------14-16-|----11--11------11----------------14-16--|-------|
A|----------------------|-----------------------------------------|-------|
E|----------------------|-----------------------------------------|-------|



Vp1		
Vp2
Vp1 x 6	
B
C x 2		C x 4
Vp2
vp1 x 6
B
C x 2		C x 4
I
Vp1 x 4
E
C x 2		E

            
            
Suggest correction
Creating personal tab
Creating personal tab
You can edit any tab online and save it as your Personal.

You can edit, replace or remove any tab part or add personal notes – all changes will be seen only by you.

Personal tabs can be accessed anytime from any device, even offline.
Learn more »
comments
print report bad tab
6 comments total. Showing first comments.
0 reply
FallenSyndrome 320 Aug 25, 2006 08:34 AM

wtf

0 reply
geetarer3 31 Nov 11, 2006 01:31 PM

WHAAAAA????

0 reply
thisxbrokenxday 10 Nov 30, 2006 02:28 PM

dude you made that way more difficult then it really is..

guest
Wanna post a correction for this tab? Suggest correction