Oops, an error
Loading. Please wait.

Tide tab

version 6
version 6

Interactive

55,809 views 6 this week
5 commentsread comments
1 2 3 4 5
x 21
add to favorites
×
Save as Personal and add changes to this tab that will be seen only by you. Learn more ›
×
You can save this tab as Personal to edit and correct it or add notes. All changes will be seen only by you. Learn more »
launch autoscroll
font size
0
reset
how to read this tab
guitar tuner
edit
Autoscroll
slow
fast
+/-
esc
set tempo
stop
-------------------------------------------------------------------------------
                          THE TIDE - The Spill Canvas
-------------------------------------------------------------------------------
Tabbed by: Robert Piller
Email: nothin7@hotmail.com

A little treat for the fans...

Tuning (CD): Standard, capo 2nd fret
Tuning (live): Standard, half step flat

e|------------------------|
B|------------------------|
G|-------------0----------|
D|--------2p0----4p0-0--5-|
A|-2/3-3------------------|
E|------------------------|
(riff)

e|-------0-----------0--------0-----0-----0-----0--|
B|-------0-----------0--------0-----0-----0-----0--|
G|-------7-----------7-----7-----7-----5-----5-----|
D|-----5-5---------5-5-----7-----7-----5-----5-----|
A|-5/7-7-7-----5/7-7-7-----5-----5-----3-----3-----|
E|-------0-----------0-----------------------------|
"and there's three..."

e|----0--------------------------------|
B|----0--------------------------------|
G|-7-----7--7--7/9---9--9--9--9--9--9--|
D|-7-----7--7--7/9---9--9--9--9--9--9--|
A|-5-----5--5--5/7---7--7--x--x--x--x--|
E|-------------------------8--8--8--8--|
"and he can't understand..."

e|-------------------------------------|
B|-3--3--3--3--3--3--3--3--3-----3-3-3-|
G|-0--0--0--0--0--0--0--0--0-----0-0-0-|
D|-0--0--0--0--x--x--x--x--x-----x-x-x-|
A|-x--x--x--x--3--3--3--3--3-----3-3-3-|
E|-3--3--2--2--------------------------|
"breathing when true love ends..."

e|-------------------------------------|
B|-------------------------------------|
G|-7--7--7--7--7--7--7--7--------------|
D|-5--5--5--5--5--5--5--5--9--9--9--9--|
A|-7--7--7--7--7--7--7--7--x--x--x--x--|
E|-0--0--0--0--0--0--0--0--7--7--7--7--|
"heaven's not a place..."

e|-------------------------------------|
B|-3--3--3--3--3--3--3--3--------------|
G|-0--0--2--2--0--0--0--0--4-----4-4-4-|
D|-0--0--0--0--x--x--x--x--4-----4-4-4-|
A|-x--x--------3--3--3--3--2-----2-2-2-|
E|-3--3--------------------------------|
"actually feel alive..."

e|-0-0-0-0-0-0-|
B|-0-0-0-0-0-0-|
G|-4-4-4-4-4-4-|
D|-4-4-4-4-4-4-|
A|-2-2-2-2-2-2-|
E|-------------|
(before final chorus)

When Nick plays this live (video at www.myspace.com/tsc), the following parts (marked 
v's below) are different:

               v
e|------------------------|
B|------------------------|
G|------------------------|
D|--------2p0--0-4p0-0--5-|
A|-2/3-3------------------|
E|------------------------|
(riff)

                           v     v v v
e|-------------------------------------|
B|-3--3--3--3--3--3--3--3--------------|
G|-0--0--0--0--0--0--0--0--4-----4-4-4-|
D|-0--0--0--0--x--x--x--x--4-----4-4-4-|
A|-x--x--x--x--3--3--3--3--2-----2-2-2-|
E|-3--3--2--2--------------------------|
"breathing when true love ends..."

                                 v  v
e|-------------------------------------|
B|-------------------------------------|
G|-7--7--7--7--7--7--7--7--------------|
D|-5--5--5--5--5--5--5--5--9--9--9--9--|
A|-7--7--7--7--7--7--7--7--x--x--x--x--|
E|-0--0--0--0--0--0--0--0--7--7--8--8--|
"heaven's not a place..."

   v v v v v v
e|-0-0-0-0-----0-0-0-0-0-0-|
B|-0-0-0-0-----0-0-0-0-0-0-|
G|-4-4-4-4-----4-4-4-4-4-4-|
D|-4-4-4-4-----4-4-4-4-4-4-|
A|-2-2-2-2-----2-2-2-2-2-2-|
E|-------------------------|
(before final chorus)

            
            
Suggest correction
Creating personal tab
Creating personal tab
You can edit any tab online and save it as your Personal.

You can edit, replace or remove any tab part or add personal notes – all changes will be seen only by you.

Personal tabs can be accessed anytime from any device, even offline.
Learn more »
comments
print report bad tab
5 comments total. Showing first comments.
0 reply
wongacaster 90 Aug 05, 2007 05:55 AM

good tab man.
really helped me as i couldnt get the chord after like the g chord in the chorus.

0 reply
wongacaster 90 Aug 07, 2007 12:37 AM

umm wait.
in the chorus i think he does more of a d chord like in the "when you actually feel alive" part like th second chord i think is a d but without the high f note in their.

0 reply
wongacaster 90 Aug 07, 2007 12:38 AM

in the live version that comment is for.

guest
You may want to rate the tab now too:
select rating
Wanna post a correction for this tab? Suggest correction