Oops, an error
Loading. Please wait.

Amapola bass

version 1
version 1

Whole song

Interactive

3,166 views 3 this week
no commentswrite comment
1 2 3 4 5
3 more votes to show rating
add to favorites
×
Save as Personal and add changes to this tab that will be seen only by you. Learn more ›
×
You can save this tab as Personal to edit and correct it or add notes. All changes will be seen only by you. Learn more »
launch autoscroll
font size
0
reset
guitar tuner
backing track
0:00
0:00
edit
Autoscroll
slow
fast
+/-
esc
set tempo
stop
Author
Amapola
The Spotnicks
http://www.spotnicks.net/uk/index_uk.htm
Written by Joseph LaCalle; released on the EP "The Spotnicks"

Intro:
G|------- ------- ------- -------|------- ------- ------- -------|
D|-------------------------------|-------------------------------|
A|-------------------------------|-------------------------------|
E|-------------------------------|-------------------------------|
 


G|------- ------- ------- -------|------- ------- ------- -------|
D|-------------------------------|-------------------------------|
A|-------------------------------|-------------------------------|
E|-------------------------------|-------------------------------|
 


G|------- ------- ------- -------|------- ------- ------- -------|
D|-------------------------------|-------------------------------|
A|-------------------------------|-------------------------------|
E|5-------5---5-------5---5---5--|4-/-5---5---5-------5---5---5--|
 


G|------- ------- ------- -------|------- ------- ------- -------|
D|-------------------------------|-------------------------------|
A|-------------------------------|-------------------------------|
E|4-/-5---5---5-------5---5---5--|4-/-5---5---5-------5---5---5--|
 

Verse:
G|------- ------- ------- -------|------- ------- ------- -------|
D|-------------------------------|-------------------------------|
A|-------------------------------|-------------------------------|
E|4-/-5---5---5-------5---5---5--|4-/-5---5---5-------5---5---5--|
 


G|------- ------- ------- -------|------- ------- ------- -------|
D|-------------------------------|-------------------------------|
A|-------------------------------|-------------------------------|
E|4-/-5---5---5-------5---5---5--|4-/-5---5---5-------5---5---5--|
 


G|------- ------- ------- -------|------- ------- ------- -------|
D|-------------------------------|-------------------------------|
A|-------------------------------|-------------------------------|
E|4-/-5---5---5-------5---5---5--|4-/-5---5---5-------5---5---5--|
 


G|------- ------- ------- -------|------- ------- ------- -------|
D|-------------------------------|-------------------------------|
A|6-/-7---7---7-------7---7---7--|7------------------------------|
E|-------------------------------|-------------------------------|
 


G|------- ------- ------- -------|------- ------- ------- -------|
D|-------------------------------|-------------------------------|
A|7-------7---7-------7---7---7--|6-/-7---7---7-------7---7---7--|
E|-------------------------------|-------------------------------|
 


G|------- ------- ------- -------|------- ------- ------- -------|
D|-------------------------------|-------------------------------|
A|6-/-7---7---7-------7---7---7--|6-/-7---7---7-------7---7---7--|
E|-------------------------------|-------------------------------|
 


G|------- ------- ------- -------|------- ------- ------- -------|
D|-------------------------------|-------------------------------|
A|6-/-7---7---7-------7---7---7--|6-/-7---7---7-------7---7---7--|
E|-------------------------------|-------------------------------|
 


G|------- ------- ------- -------|------- ------- ------- -------|
D|-------------------------------|-------------------------------|
A|-------------------------------|-------------------------------|
E|4-/-5---5---5-------5---5---5--|5------------------------------|


Verse:
G|------- ------- ------- -------|------- ------- ------- -------|
D|-------------------------------|-------------------------------|
A|-------------------------------|-------------------------------|
E|5-------5---5-------5---5---5--|4-/-5---5---5-------5---5---5--|
 


G|------- ------- ------- -------|------- ------- ------- -------|
D|-------------------------------|-------------------------------|
A|-------------------------------|-------------------------------|
E|4-/-5---5---5-------5---5---5--|4-/-5---5---5-------5---5---5--|
 


G|------- ------- ------- -------|------- ------- ------- -------|
D|-------------------------------|-------------------------------|
A|-------------------------------|-------------------------------|
E|1-/-2---2---2-------2---2---2--|1-/-2---2---2-------2---2------|
 


G|------- ------- ------- -------|------- ------- ------- -------|
D|-------------------------------|-------------------------------|
A|2-------2---2-------2---2---2--|2------------------------------|
E|-------------------------------|-------------------------------|
 


G|------- ------- ------- -------|------- ------- ------- -------|
D|-------------------------------|-------------------------------|
A|5---5---5---5-------5---5------|4-/-5---5---5-------5---5---5--|
E|-------------------------------|-------------------------------|
 


G|------- ------- ------- -------|------- ------- ------- -------|
D|-------------------------------|-------------------------------|
A|-------------------------------|-------------------------------|
E|4-/-5---5---5-------5---5---5--|4-/-5---5---5-------5---5---5--|
 


G|------- ------- ------- -------|------- ------- ------- -------|
D|-------------------------------|-------------------------------|
A|7-------7---7-------7---7---7--|6-/-7---7---7-------7---7---7--|
E|-------------------------------|-------------------------------|
 


G|------- ------- ------- -------|------- ------- ------- -------|
D|------------7------------------|-------------------------------|
A|---------------------7-----4---|-------------------------------|
E|5------------------------------|5------------------------------|


Verse:
G|------- ------- ------- -------|------- ------- ------- -------|
D|-------------------------------|-------------------------------|
A|-------------------------------|-------------------------------|
E|6-------6---6-------6---6---6--|5-/-6---6---6-------6---6---6--|
 


G|------- ------- ------- -------|------- ------- ------- -------|
D|-------------------------------|-------------------------------|
A|-------------------------------|-------------------------------|
E|5-/-6---6---6-------6---6---6--|5-/-6---6---6-------6---6---6--|
 


G|------- ------- ------- -------|------- ------- ------- -------|
D|-------------------------------|-------------------------------|
A|-------------------------------|-------------------------------|
E|5-/-6---6---6-------6---6---6--|5-/-6---6---6-------6---6---6--|
 


G|------- ------- ------- -------|------- ------- ------- -------|
D|-------------------------------|-------------------------------|
A|7-/-8---8---8-------8---8---8--|8------------------------------|
E|-------------------------------|-------------------------------|
 


G|------- ------- ------- -------|------- ------- ------- -------|
D|-------------------------------|-------------------------------|
A|8-------8---8-------8---8---8--|7-/-8---8---8-------8---8---8--|
E|-------------------------------|-------------------------------|
 


G|------- ------- ------- -------|------- ------- ------- -------|
D|-------------------------------|-------------------------------|
A|7-/-8---8---8-------8---8---8--|7-/-8---8---8-------8---8---8--|
E|-------------------------------|-------------------------------|
 


G|------- ------- ------- -------|------- ------- ------- -------|
D|-------------------------------|-------------------------------|
A|7-/-8---8---8-------8---8---8--|7-/-8---8---8-------8---8------|
E|-------------------------------|-------------------------------|
 


G|------- ------- ------- -------|------- ------- ------- -------|
D|-------------------------------|-------------------------------|
A|-------------------------------|-------------------------------|
E|5-/-6---6---6-------6---6---6--|6------------------------------|


Verse:
G|------- ------- ------- -------|------- ------- ------- -------|
D|-------------------------------|-------------------------------|
A|-------------------------------|-------------------------------|
E|6-------6---6-------6---6---6--|5-/-6---6---6---6---6---6---6--|
 


G|------- ------- ------- -------|------- ------- ------- -------|
D|-------------------------------|-------------------------------|
A|-------------------------------|-------------------------------|
E|5-/-6---6---6-------6---6---6--|5-/-6---6---6-------6---6---5--|
 


G|------- ------- ------- -------|------- ------- ------- -------|
D|-------------------------------|-------------------------------|
A|-------------------------------|-------------------------------|
E|3-------3---3-------3---3------|2-/-3---3---3-------3---3------|
 


G|------- ------- ------- -------|------- ------- ------- -------|
D|-------------------------------|-------------------------------|
A|3-------3---3-------3---3---3--|3------------------------------|
E|-------------------------------|-------------------------------|
 


G|------- ------- ------- -------|------- ------- ------- -------|
D|-------------------------------|-------------------------------|
A|6-------6---6---6---6---6---6--|5-/-6---6---6---6---6---6---6--|
E|-------------------------------|-------------------------------|
 


G|------- ------- ------- -------|------- ------- ------- -------|
D|-------------------------------|-------------------------------|
A|-------------------------------|-------------------------------|
E|5-/-6---6---6---6---6---6---6--|5-/-6---6---6---6---6---6---6--|
 


G|------- ------- ------- -------|------- ------- ------- -------|
D|-------------------------------|-------------------------------|
A|7-/-8---8---8---8---8---8---8--|7-/-8---8---8---8---8---8---8--|
E|-------------------------------|-------------------------------|
 


G|------- ------- ------- -------|------- ------- ------- -------|
D|------------8------------------|-------------------------------|
A|---------------------8-----5---|-------------------------------|
E|6------------------------------|6------------------------------|


Outro:
G|------- ------- ------- -------|------- ------- ------- -------|
D|-------------------------------|-------------------------------|
A|8-------8---8-------8---8---8--|7-/-8---8---8-------8---8------|
E|-------------------------------|-------------------------------|
 


G|------- ------- ------- -------|------- ------- ------- -------|
D|------------8------------------|-------------------------------|
A|---------------------8-----5---|-------------------------------|
E|6------------------------------|6------------------------------|
 


G|------- ------- ------- -------|------- ------- ------- -------|
D|-------------------------------|-------------------------------|
A|8---8---8---8-------8---8---8--|7-/-8---8---8-------8---8---8--|
E|-------------------------------|-------------------------------|
 


G|------- ------- ------- -------|------- ------- ------- -------|
D|------------8------------------|----------------8--------------|
A|---------------------8-----5---|-------------------------------|
E|6------------------------------|6------------------------------|

Please e-mail me for any corrections, or write a comment.

            
            
Suggest correction
Creating personal tab
Creating personal tab
You can edit any tab online and save it as your Personal.

You can edit, replace or remove any tab part or add personal notes – all changes will be seen only by you.

Personal tabs can be accessed anytime from any device, even offline.
Learn more »
Give kudos to tab author, rate the tab!
1 2 3 4 5
comments
print report bad tab
guest
You may want to rate the tab now too:
select rating
Wanna post a correction for this tab? Suggest correction