Oops, an error
Loading. Please wait.

Up And Go bass

version 1
version 1

Whole song

Interactive

1,864 views 1 this week
1 commentread comment
1 2 3 4 5
1 last vote to show rating
add to favorites
×
Save as Personal and add changes to this tab that will be seen only by you. Learn more ›
×
You can save this tab as Personal to edit and correct it or add notes. All changes will be seen only by you. Learn more »
launch autoscroll
font size
0
reset
guitar tuner
edit
Autoscroll
slow
fast
+/-
esc
set tempo
stop
Title: Up and Go
by countertiger_x

These are bass tabs!!  The tuning is regular.....E, A, D, G

At first, there is only guitar picking....then there is the intro...

Intro:
G:---------------------------------------------
D:---------------------------------------------
A:-77777777------------------------------------   2x
E:-----------7777---9999---2222--0000---5555---

Then when the Ken starts singing it changes.

Verse:

"Here it goes, and this won't take long...."

G:---------------------------------------------
D:---------------------------------------------
A:-77777777------------------------------------  2x 
E:-----------77777777--99999999--55555555------

Then after the two times the bassist goes:


G:------------
D:------------
A:------------
E:--555--444--

Then the whole thing starts all over again until the pre chorus comes:

Pre-Chorus:

G:---------------------------------------------
D:---------------------------------------------
A:-------------------777777777-----------------
E:---2-2-xx--5-5-xx-------------77777777-------

G:------------
D:------------
A:------------
E:--2-2-xx--5-

Chorus:

G:---------------------------------------------
D:---------------------------------------------
A:-77777777------------------------------------  2x
E:-----------77777777--99999999--55555555------

Then it goes back to the verse....

Verse (1x)

PreChorus (1x)

Chorus (2x)

After that whole thing there is the bridge which is exactly like the intro:

"What will make you stay........up and go...."
G:---------------------------------------------
D:---------------------------------------------
A:-77777777------------------------------------   2x
E:-----------7777---9999---2222--0000---5555---

And then when Ken goes:

"I guess we'll never know........."

You go:

G:------------
D:------------
A:------------
E:--5----5----

And then after it just goes back to the chorus....blah blah blah.

The ending is exactly like the intro. After that, you have everything!
Any questions or comments? Email me! 

countertiger_x@hotmail.com

Enjoy my tabs!

            
            
Suggest correction
Creating personal tab
Creating personal tab
You can edit any tab online and save it as your Personal.

You can edit, replace or remove any tab part or add personal notes – all changes will be seen only by you.

Personal tabs can be accessed anytime from any device, even offline.
Learn more »
Give kudos to tab author, rate the tab!
1 2 3 4 5
comments
print report bad tab
1 comment total.
0 reply
goughy 10 Dec 05, 2003 07:00 PM

the intro is:

G------------------------------------------------
D------------------------------------------------
A-----------------7777777722224444---------------
E----00-----00--------------------222200005555---

verse is:

G----------------------------------------
D----------------------------------------
A--777777772222222244444444--------------
E--------------------------55555555------

G-----------------------------------------
D-----------------------------------------
A-----------------------------------------
E-22--5*----0000--0000--5555-5555--22--5*-

Chorus:

G-------------------------------------------
D-------------------------------------------
A----------------------44444444-------------
E----00000000555555555----------55555555----


Thats how i play it an improvise in between.
see if you like this version.

guest
You may want to rate the tab now too:
select rating
Wanna post a correction for this tab? Suggest correction