Oops, an error
Loading. Please wait.

In The Long Run tab

4,996 views 138 this week
1 commentread comment
1 2 3 4 5
x 9
add to favorites
×
Save as Personal and add changes to this tab that will be seen only by you. Learn more ›
×
You can save this tab as Personal to edit and correct it or add notes. All changes will be seen only by you. Learn more »
launch autoscroll
font size
0
reset
how to read this tab
guitar tuner
edit
Autoscroll
slow
fast
+/-
esc
set tempo
stop
Author
Difficulty
-------------------------------------------------------------------------------
                             In The Long Run - The Staves
-------------------------------------------------------------------------------
This is my first attempt at writing a tab , I hope this makes sense!!
Credit must be given to Liward72 for the chords also provided, this helped me massively.
Mainly though a video on youtube by Cams Campbell - that's where I've got this from but in the video he 
explains that he doesn't write tabs so I've tried to do it myself.. I highly recommend watching the video,
and if you need a visual reference for the tab, try and use this. 
https://www.youtube.com/watch?v=kX8zPWgzkUA

I know it's not 100% but hopefully you get the jist of the rough picking pattern and can try and play the song! 

I don't claim to be a musical genius, I just enjoy playing the guitar on my own, in my room, so if you
want to slate me or my terminology, be my guest.




Tuning: Standard
Capo 3
Tip:
Play G chords with 3rd 4th 5th finger, not your standard 2,3,4. 

Pinky stays on high e string, 3rd fret throughout most intro + verse.

Intro      G                      C                     G                     C
e|-------------------------------------3-----------3---------3---------3-----------3-----|
B|--------0-----0------0----0-----0h1----1----0h1----1---0-----0---0-----0----0h1----0---|
G|----------------0-----------0------------0-----------0---------0---------0-----------0-|
D|-----------0------0-----0-----0----2-----------2---------0---------0------------2------|
A|--------------------------------3-----------3-------------------------------3----------|
E|--0--2--3------------3---------------------------------3---------3---------------------|


Verse 
  
     Lying    a    dreamer    dreaming      beside   me
  
    G                         C                    G          C          G
e|-------3------------3-----------3-----------3---------3----------3---------3--------|
B|--0------0-----0------0-----0h1---1----0h1----1---0-----0---0h1----0---0-----0------|
G|-----------0------------0-----------0-----------0---------0----------0---------0----|
D|-----0-----------0-------------2-----------2---------0----------2--------0----------|
A|----------------------------3-----------3-------------------3-----------------------|
E|--3------------3----------------------------------3--------------------3------------|

      The city   sirens   keep     me        awake

   C                                          G          C          G
e|------0-----------0-------0-----------0---------3-----------3---------3--------|
B|-0h1----1----0h1-----0h1----1----0h1----0---0-----0----0h1----0---0-----0------|
G|----------0-------------------0-----------0---------0-----------0---------0----|
D|----2-----------2-------2-----------2---------0------------2--------0----------|
A|-3-----------3-------3-----------3---------------------3-----------------------|
E|--------------------------------------------3---------------------3------------|

 Chorus
 
    But I know    that I'll see you again in the Loooong Run

    D                                            Am?      G
e|------2----------2----------2h3-------3p2-----------------------------------|
B|--3-----3----3-----3----3------3----3----3----1p0-------0---0-----0---0-----|
G|----2-----2----2-----2----2------2----2----2-----2p0----------0---------0---|
D|--0----------0----------0-----------0---------------2p0---0-----0---0-----0-|
A|----------------------------------------------------------------------------|
E|--------------------------------------------------------3---------3---------|

Verse 2.

    People they tell me I should be careful

    G                         C                    G          C          G
e|-------3------------3-----------3-----------3---------3----------3---------3--------|
B|--0------0-----0------0-----0h1---1----0h1----1---0-----0---0h1----0---0-----0------|
G|-----------0------------0-----------0-----------0---------0----------0---------0----|
D|-----0-----------0-------------2-----------2---------0----------2--------0----------|
A|----------------------------3-----------3-------------------3-----------------------|
E|--3------------3----------------------------------3--------------------3------------|

    
   That you’ll worry, and I’m already miles away

   C                                          G          C          G
e|------0-----------0-------0-----------0---------3-----------3---------3--------|
B|-0h1----1----0h1-----0h1----1----0h1----0---0-----0----0h1----0---0-----0------|
G|----------0-------------------0-----------0---------0-----------0---------0----|
D|----2-----------2-------2-----------2---------0------------2--------0----------|
A|-3-----------3-------3-----------3---------------------3-----------------------|
E|--------------------------------------------3---------------------3------------|
   
Chorus 2.
    But I know    that I'll see you again in the Loooong Run

    D                                            Am?      G
e|------2----------2----------2h3-------3p2-----------------------------------|
B|--3-----3----3-----3----3------3----3----3----1p0-------0---0-----0---0-----|
G|----2-----2----2-----2----2------2----2----2-----2p0----------0---------0---|
D|--0----------0----------0-----------0---------------2p0---0-----0---0-----0-|
A|----------------------------------------------------------------------------|
E|--------------------------------------------------------3---------3---------|


But I know    that I'll see you again in the Loooong Run

    D                                            Am?      G
e|------2----------2----------2h3-------3p2-----------------------------------|
B|--3-----3----3-----3----3------3----3----3----1p0-------0---0-----0---0-----|
G|----2-----2----2-----2----2------2----2----2-----2p0----------0---------0---|
D|--0----------0----------0-----------0---------------2p0---0-----0---0-----0-|
A|----------------------------------------------------------------------------|
E|--------------------------------------------------------3---------3---------|


Bridge
   And we can't be lovers cause I'm still afraid

     Em         A7         D7          G
e|------------------------------2-----------3-------|
B|-------0-----------2------1-----1-----------0-----|
G|---0-----0----0------0------2-----2--0--------0---|
D|-----2-----2-----2-----2--0-------------0---------|
A|--------------0-----------------------------------|
E|---0---------------------------------3------------|


    Of losing the things I love dearly

     Em         A7         D7          D7
e|------------------------------2----------2-------|
B|-------0-----------2------1-----1----1-----1-----|
G|---0-----0----0------0------2-----2----2-----2---|
D|-----2-----2-----2-----2--0----------0-----------|
A|--------------0----------------------------------|
E|---0---------------------------------------------|

 Verse 3

I wander, I roam, I write home to tell you

    G                         C                    G          C          G
e|-------3------------3-----------3-----------3---------3----------3---------3--------|
B|--0------0-----0------0-----0h1---1----0h1----1---0-----0---0h1----0---0-----0------|
G|-----------0------------0-----------0-----------0---------0----------0---------0----|
D|-----0-----------0-------------2-----------2---------0----------2--------0----------|
A|----------------------------3-----------3-------------------3-----------------------|
E|--3------------3----------------------------------3--------------------3------------|


That I’m sorry, I won’t leave it this late again

   C                                          G          C          G
e|------0-----------0-------0-----------0---------3-----------3---------3--------|
B|-0h1----1----0h1-----0h1----1----0h1----0---0-----0----0h1----0---0-----0------|
G|----------0-------------------0-----------0---------0-----------0---------0----|
D|----2-----------2-------2-----------2---------0------------2--------0----------|
A|-3-----------3-------3-----------3---------------------3-----------------------|
E|--------------------------------------------3---------------------3------------|


Chorus 3

    But I know    that I'll see you again in the Loooong Run

    D                                            Am?      G
e|------2----------2----------2h3-------3p2-----------------------------------|
B|--3-----3----3-----3----3------3----3----3----1p0-------0---0-----0---0-----|
G|----2-----2----2-----2----2------2----2----2-----2p0----------0---------0---|
D|--0----------0----------0-----------0---------------2p0---0-----0---0-----0-|
A|----------------------------------------------------------------------------|
E|--------------------------------------------------------3---------3---------|

But I know    that I'll see you again in the Loooong Run

    D                                            Am?      G
e|------2----------2----------2h3-------3p2-----------------------------------|
B|--3-----3----3-----3----3------3----3----3----1p0-------0---0-----0---0-----|
G|----2-----2----2-----2----2------2----2----2-----2p0----------0---------0---|
D|--0----------0----------0-----------0---------------2p0---0-----0---0-----0-|
A|----------------------------------------------------------------------------|
E|--------------------------------------------------------3---------3---------|

Bridge Final

   But I can't be married you'll take me away

     Em         A7         D7          G
e|------------------------------2-----------3-------|
B|-------0-----------2------1-----1-----------0-----|
G|---0-----0----0------0------2-----2--0--------0---|
D|-----2-----2-----2-----2--0-------------0---------|
A|--------------0-----------------------------------|
E|---0---------------------------------3------------|


    From everything that I love dearly

     Em         A7         D7          D7
e|------------------------------2----------2-------|
B|-------0-----------2------1-----1----1-----1-----|
G|---0-----0----0------0------2-----2----2-----2---|
D|-----2-----2-----2-----2--0----------0-----------|
A|--------------0----------------------------------|
E|---0---------------------------------------------|


And we can’t be lovers, you’ll take me away

     Em         A7         D7          G
e|------------------------------2-----------3-------|
B|-------0-----------2------1-----1-----------0-----|
G|---0-----0----0------0------2-----2--0--------0---|
D|-----2-----2-----2-----2--0-------------0---------|
A|--------------0-----------------------------------|
E|---0---------------------------------3------------|

From my home my home my home 
THIS BIT I'M NOT SURE..
other tab says F C F but I believe playing the F with an open high E string and thumb closing low E sting on 1.





            
            
Suggest correction
Creating personal tab
Creating personal tab
You can edit any tab online and save it as your Personal.

You can edit, replace or remove any tab part or add personal notes – all changes will be seen only by you.

Personal tabs can be accessed anytime from any device, even offline.
Learn more »
comments
print report bad tab
1 comment total.
0 reply
dmcelligott 57 Nov 08, 2015 01:23 PM

I think actually for the 'in the long run' part, play C as you would during the song for 1 then it's root not and B string together followed by a single pick on the D string for G C G quickly.

guest
You may want to rate the tab now too:
select rating
Wanna post a correction for this tab? Suggest correction