Oops, an error
Loading. Please wait.

Silver Lining chords

67 views 1 this week
no commentswrite comment
1 2 3 4 5
x 5
add to favorites
×
Save as Personal and add changes to this tab that will be seen only by you. Learn more ›
×
You can save this tab as Personal to edit and correct it or add notes. All changes will be seen only by you. Learn more »
launch autoscroll
font size
0
reset
transpose
0
reset
display chords
guitar tuner
edit
Autoscroll
slow
fast
+/-
esc
set tempo
stop
Strumming
There is no strumming pattern for this song yet. and get +5 IQ
SONG:   SILVER LINING
ARTIST: THE STEEPWATER BAND
TAB BY: DON CZARSKI
EMAIL:  GUITARZAN7@HOTMAIL.COM


                    SILVER LINING
                 THE STEEPWATER BAND

INTRO: 

NOTE:  This *RIFF* is played the entire song  
       throughout the VERSE and in one place
       during the CHORUS where indicated.
       

           * RIFF *
E ----------------------------
B ----------------------------
G -------10-------------------
D --12-9----12--10-9----9-----
A -------------------12---12--
E ----------------------------

E ----------------------------
B ----------------------------
G -------10-------------------
D --12-9----12--10-9----9-----
A -------------------12---12--
E ----------------------------


VERSE: (Play *RIFF* throughout VERSE)

*RIFF*
C'mon mama, 

*RIFF*
Move too slow

*RIFF*
You're my rider, 

*RIFF*
Time to go


CHORUS: (SLIDE into the chords)

sl.                sl.
G                   A
 You're the one for me

You got to let that be

           * RIFF *
E ----------------------------
B ----------------------------
G -------10-------------------
D --12-9----12--10-9----9-----
A -------------------12---12--
E ----------------------------

sl.                sl.
G                   A
 You're the one for me
                    sl.
                    Bm
You got to let that be
                  sl.
                   E
Don't ever set it free

Free

           * RIFF *
E ----------------------------
B ----------------------------
G -------10-------------------
D --12-9----12--10-9----9-----
A -------------------12---12--
E ----------------------------

E ----------------------------
B ----------------------------
G -------10-------------------
D --12-9----12--10-9----9-----
A -------------------12---12--
E ----------------------------


VERSE: (Play *RIFF* throughout VERSE)

*RIFF*
Silver Lining, 

*RIFF*
'Round my cloud

*RIFF*
You keep shining, 

*RIFF*
When I'm down


CHORUS: (SLIDE into the chords)

sl.                sl.
G                   A
 You're the one for me

You got to let that be

           * RIFF *
E ----------------------------
B ----------------------------
G -------10-------------------
D --12-9----12--10-9----9-----
A -------------------12---12--
E ----------------------------

sl.                sl.
G                   A
 You're the one for me
                    sl.
                    Bm
You got to let that be
                  sl.
                   E
Don't ever set it free

sl.                sl.
G                   A
 You're the one for me


INSTRUMENTAL/SOLO:

sl.   sl.
Bm    E

sl.   sl.
Bm    E

sl.   sl.
Bm    E

sl.   sl.
G     A

           * RIFF *
E ----------------------------
B ----------------------------
G -------10-------------------
D --12-9----12--10-9----9-----
A -------------------12---12--
E ----------------------------

E ----------------------------
B ----------------------------
G -------10-------------------
D --12-9----12--10-9----9-----
A -------------------12---12--
E ----------------------------


VERSE: (Play *RIFF* throughout VERSE)

*RIFF*
C'mon mama, 

*RIFF*
Move too fast

*RIFF*
Take your time,

*RIFF*
Make it last


CHORUS: (SLIDE into the chords)

sl.                sl.
G                   A
 You're the one for me

You got to let that be

           * RIFF *
E ----------------------------
B ----------------------------
G -------10-------------------
D --12-9----12--10-9----9-----
A -------------------12---12--
E ----------------------------

sl.                sl.
G                   A
 You're the one for me
                    sl.
                    Bm
You got to let that be
                  sl.
                   E
Don't ever set it free

sl.                sl.
G                   A
 You're the one for me
                    sl.
                    Bm
You got to let that be
                  sl.
                   E
Don't ever set it free

sl.                sl.
G                   A
 You're the one for me

                    
You got to let that be

           * RIFF *
E ----------------------------
B ----------------------------
G -------10-------------------
D --12-9----12--10-9----9-----
A -------------------12---12--
E ----------------------------
                Let it be

E ----------------------------
B ----------------------------
G -------10-------------------
D --12-9----12--10-9----9-----
A -------------------12---12--
E ----------------------------
  Silver Lining

E ----------------------------
B ----------------------------
G -------10-------------------
D --12-9----12--10-9----9-----
A -------------------12---12--
E ----------------------------
  
E ----------------------------
B ----------------------------
G -------10-------------------
D --12-9----12--10-9----9-----
A -------------------12---12--
E ----------------------------
  Silver Lining

E ----------------------------
B ----------------------------
G -------10-------------------
D --12-9----12--10-9----9-----
A -------------------12---12--
E ----------------------------
  
E ----------------------------
B ----------------------------
G -------10-------------------
D --12-9----12--10-9----9-----
A -------------------12---12--
E ----------------------------
  Silver Lining

E ----------------------------
B ----------------------------
G -------10-------------------
D --12-9----12--10-9----9-----
A -------------------12---12--
E ----------------------------
  
E ----------------------------
B ----------------------------
G -------10-------------------
D --12-9----12--10-9----9-----
A -------------------12---12--
E ----------------------------
  Silver Lining

E ----------------------------
B ----------------------------
G -------10-------------------
D --12-9----12--10-9----9-----
A -------------------12---12--
E ----------------------------
  
sl.   sl.
G     A

sl./
D

sl.\
D

N.C.
Silver Lining

            
            
Suggest correction
Creating personal tab
Creating personal tab
You can edit any tab online and save it as your Personal.

You can edit, replace or remove any tab part or add personal notes – all changes will be seen only by you.

Personal tabs can be accessed anytime from any device, even offline.
Learn more »
comments
print report bad tab
guest
You may want to rate the tab now too:
select rating
Wanna post a correction for this tab? Suggest correction