Oops, an error
Loading. Please wait.

Driving South tab

version 2
version 2

Whole song

Interactive

13,350 views 15 this week
no commentswrite comment
1 2 3 4 5
x 4
add to favorites
×
Save as Personal and add changes to this tab that will be seen only by you. Learn more ›
×
You can save this tab as Personal to edit and correct it or add notes. All changes will be seen only by you. Learn more »
launch autoscroll
font size
0
reset
how to read this tab
guitar tuner
edit
Autoscroll
slow
fast
+/-
esc
set tempo
stop
Artist: Stone Roses
Song: Driving South
Album: Second Coming (1994)
Tunning: standard
Tabbed By: INDIE NATION

Main Riff:

e-------------------------------------|
b-------------------------------------|
g-------------------------------------|
d-------------------------------------|
a-------0-----------------------------|
e-0-3b4---3p0--0h3p0--3b5-0--3h5p3p0--|

e---------------------------------|
b---------------------------------|
g---------------------------------|
d---------------------------------|
a-----0---------------------------|
e-3b4---3p0-0h3p0--3-3-3--h5~~~~--|


e-------------------------------------|
b-------------------------------------|
g-------------------------------------|
d-------------------------------------|
a-------0-----------------------------|
e-0-3b4---3p0--0h3p0--3b5-0--3h5p3p0--|

(Drums enter)

e------------------------------------|
b------------------------------------|
g------------------------------------|
d------------------------------------|
a-----0------------------------------|
e-3b4---3p0-0h3p0--3-3-3--h5~~~~~----|


e--------------------------------------|
b--------------------------------------|
g--------------------------------------|
d--------------------------------------|
a-------0------------------------------|
e-0-3b4---3p0--0h3p0-3b5-0--3h5p3p0----|

e----------------------------------|
b----------------------------------|
g----------------------------------|
d----------------------------------|
a-----0----------------------------|
e-3b4---3p0-0h3p0-3-3-3--h5~~~~----|

e--------------------------------------|
b--------------------------------------|
g--------------------------------------|
d--------------------------------------|
a-------0------------------------------|
e-0-3b4---3p0--0h3p0-3b5-0--3h5p3p0----|

e------------------------------------|
b------------------------------------|
g------------------------------------|
d------------------------------------|
a-----0------------------------------|
e-3b4---3p0-0h3p0-3-3-3--h-5~~~~-----|

e--------------------------------------|
b--------------------------------------|
g--------2-----------------------------|
d--------------------------------------|
a-0--3b4---3p0--0h3p0-3b5-0-3h5p3p-0---|
e--------------------------------------|

e-----------------------------------------|
b-----------------------------------------|
g-------2---------------------------------|
d-----------------------------------------|
a-0-3b4---3p0--0h3p0-3p0-3p0-3-3h5~~~~----|
e-----------------------------------------|

e--------------------------------------|
b--------------------------------------|
g--------------------------------------|
d--------------------------------------|
a-------0------------------------------|
e-0-3b4---3p0--0h3p0-3b5-0--3h5p3p0----|

e--------------------------------|
b--------------------------------|
g--------------------------------|
d--------------------------------|
a-----0--------------------------|
e-3b4---3p0--0h3p0--0~~~~~~~-----|

e------------------------------------------------------------|
b------------------------------------------------------------|
g--------4---------------------------------------------------|
d----------2p0---2p0---0-------------------------------------|
a-5-b7---------2-----2---2---------------------5---5-7-7-5-7-|
e-----------------------------\5-5--5-3-5-\7-7---7-----------|

e---------------------------------------------|
b---------------------------------------------|
g---------------------------------------------|
d---2-2-2------0-2p0--------------------------|
a---------0h2--------2p0----------------------|
e-0--------------------------0-(let ring)-----|

1st Verse:


        driving south round midnight and i must have been insane
e-----------------------------------------------------------------|
b-----------------------------------------------------------------|
g-----------------------------------------------------------------|
d-----------------------------------------------------------------|
a-----------------------------------------------------------------|
e---------------------------------------x-0-(let ring)------------|

e-----------------------------------------------------------------|
b--------------------------x-8-x-8--------------------------------|
g--7-9-7-9--9-9-8-8-7-7----x-7-x-7-7------------------------------|
d--9-9-9-9--------------9-----------9-9-8-8-7-7-5~~~~~------------|
a--------------------------------------------------0-(let ring)---|
e-0---------------------------------------------------------------|


        driving south round midnight in a howling hurricane
e-----------------------------------------------------------------|
b-----------------------------------------------------------------|
g-----------------------------------------------------------------|
d-----------------------------------------7-b9~~~~~~~~~~~~~~~~----|
a-----------------------------------------------------------------|
e-----------------------------------------------------------------|

e-----------------------------------------------------------------|
b--------------------------------------------10b12-12r10-8h10p8---|
g----------------------------------x-9-x-9-x----------------------|
d--9r7p-5-7p5----------------------x-9-x-9-x----------------------|
a-----------------7p5-7-----5h7-----------------------------------|
e------------------------0--0----0--------------------------------|


     At a lonely old crossroad
e----------------------------------------------------------------|
b------------------x-10b12r10---------------------10b12r10-------|
g-9p7-----11-x-11----------------9p7--9-x-9-x-9-9-----------9p7--|
d-------9-9--x-9----------------------7-x-7-x-7-7----------------|
a----------------------------------------------------------------|
e----------------------------------------------------------------|


 he said i'm going nowhere       i'm only here to see if i can
e---------------------------------------------------------------|
b-------------------x-10b12r10-------10----b12------------------|
g-9p7-----11-x---11-------------9p7-----------------------------|
d-------9-9--x-9------------------------------------------------|
a---------------------------------------------------------------|
e---------------------------------------------------------------|

   steal your soul
e-------------------------------------|
b-------------------------------------|
g-------------------------------------|
d-------------------------------------|
a-------0-----------------------------|
e-0-3b4---3p0-0h3p0-3b5-0--3h5p3p0----|

e-------------------------------------------|
b-------------------------------------------|
g-------------------------------------------|
d-------------------------------------------|
a-----0-------------------------------------|
e-3b4---3p0-0h3p0-3-3-3--h5~~-0-(let ring)--|


2nd Verse:

I'm not trynna make you, I don't wanna touch your skin
e-----------------------------------------------------------------|
b-----------------------------------------------------------------|
g-----------------------------------------------------------------|
d-----------------------------------------------------------------|
a-----------------------------------------------------------------|
e---------------------------------------x-0-(let ring)------------|

e----------------------------------------------------------------|
b--------------------------x-8-x-8-------------------------------|
g--7-9-7-9--9-9-8-8-7-7----x-7-x-7-7-----------------------------|
d--9-9-9-9--------------9------------7b9-7-7-5-7-5-7-5-5---------|
a--------------------------------------------------------7-------|
e-0--------------------------------------------------------------|

And i know all there is to know about you and all your sin
e-----------------------------------------------------------------|
b-----------------------------------------------------------------|
g-----------------------------------------------------------------|
d--------------------------------7-h9-----7b9-~~~~~~~~~~~~~~~~----|
a-----------------------------------------------------------------|
e-----------------------------------------------------------------|

e----------------------------------------------------------|
b-------------------------------------10b12-12r10-8h10p8---|
g---------------------------x-9-x-9-x----------------------|
d--9r7p5-7p5----------------x-9-x-9-x----------------------|
a------------7p5-7----5h7----------------------------------|
e------------------0--0----0-------------------------------|

 well you're too long nor pretty and you sure as hell can't sing
e------------------------------------------------------------------|
b-------------------x--10b12r10-------------------10b12-r10--------|
g-9p7-----11-x---11--------------9p7--9-x-9-x-9-9-----------9p7----|
d-------9-9--x-9----------------------7-x-7-x-7-7------------------|
a------------------------------------------------------------------|
e------------------------------------------------------------------|


 Anytime you wanna sell your soul I've got a toll-free number you can
e---------------------------------------------------------------------|
b------------------x-10b12r10-----10-----b12--------------------------|
g-9p7---11-x--11--------------9p7-------------------------------------|
d-----9-9--x-9--------------------------------------------------------|
a---------------------------------------------------------------------|
e---------------------------------------------------------------------|

 ring yeah thats what i thought said
e---------------------------------------|
b---------------------------------------|
g---------------------------------------|
d---------------------------------------|
a-------0-------------------------------|
e-0-3b4---3p0--0h3p-0-3b5-0--3h5p3p0----|

e-------------------------------------|
b-------------------------------------|
g-------------------------------------|
d-------------------------------------|
a-----0-------------------------------|
e-3b4---3p0--0h3p0-3-3-3--h5~~~~~-----|

e----------------------------------------|
b----------------------------------------|
g----------------------------------------|
d----------------------------------------|
a-------0--------------------------------|
e-0-3b4---3p0--0h3p-0--3b5-0--3h5p3p0----|


e-------------------------------------|
b-------------------------------------|
g-------------------------------------|
d-------------------------------------|
a-----0-------------------------------|
e-3b4---3p0--0h3p0-3-3-3--h5~~~~~-----|

e---------------------------------------|
b---------------------------------------|
g---------------------------------------|
d---------------------------------------|
a-------0-------------------------------|
e-0-3b4---3p0--0h3p-0-3b5-0--3h5p3p0----|

e-------------------------------------|
b-------------------------------------|
g-------------------------------------|
d-------------------------------------|
a-----0-------------------------------|
e-3b4---3p0--0h3p0-3-3-3--h5~~~~~-----|

e---------------------------------------|
b---------------------------------------|
g---------------------------------------|
d---------------------------------------|
a-------0-------------------------------|
e-0-3b4---3p0--0h3p-0-3b5-0--3h5p3p0----|

e-------------------------------------|
b-------------------------------------|
g-------------------------------------|
d-------------------------------------|
a-----0-------------------------------|
e-3b4---3p0--0h3p0-3-3-3--h5~~~~~-----|

e---------------------------------------|
b---------------------------------------|
g-------2-------------------------------|
d---------------------------------------|
a---3b4---3p0--0h3p-0-3b5-0-3h5p3p0-----|
e---------------------------------------|

e-----------------------------------------|
b-----------------------------------------|
g------2----------------------------------|
d-----------------------------------------|
a--3b4---3p0--0h3p0-3p0-3p0-3-3-h5~~~~----|
e-----------------------------------------|

e---------------------------------------|
b---------------------------------------|
g---------------------------------------|
d---------------------------------------|
a-------0-------------------------------|
e-0-3b4---3p0--0h3p-0-3b5-0--3h5p3p0----|

e---------------------------------|
b---------------------------------|
g---------------------------------|
d---------------------------------|
a-----0---------------------------|
e-3b4---3p0--0h3p0-0~~~~~~~~~-----|

e-------------------------------------------------------------|
b-------------------------------------------------------------|
g--------4----------------------------------------------------|
d----------2p0---2p0---0--------------------------------------|
a-5-b7---------2-----2---2~~~-------------------5---5-7-7-5-7-|
e------------------------------\5-5--5-3-5-\7-7---7-----------|

e------------------------------------------|
b------------------------------------------|
g------------------------------------------|
d---2-2-2------02p0------------------------|
a---------0h2--------2p0-------------------|
e-0------------------------0-(let ring)----|


SOLO: Play Fast

e-------------------------------------------|
b-------------------------------------------|
g-------------------------------------------|
d-------------------------------------------|
a----------5h7p5p0--------------------------|
e-0h3h5\7-----------5p0-3b4--0-3b4--0-3p0---|

e---------------------------------------|
b---------------------------------------|
g---------------------------------------|
d---------------------------------------|
a----------5h7p5p0-------5h7p5p0--------|
e-0h3h5\7-----------5/3-----------5/3---|

e---------------------------------|
b---------------------------------|
g---------------------------------|
d---------------------------------|
a-----5h7p5-----5h7p5------5h7----|
e-5h7-------7p5--------7p5--------|

e----------------------------------|
b----------------------------------|
g----------------------------------|
d-----5h7p5-----5h7p5------5h7-----|
a-5h7-------7p5--------7p5---------|
e----------------------------------|

e----------------------------------------|
b----------------------------------------|
g----------------------------------------|
d-5-7p5-7p5-7b9r7--5h7p5-7p5-----7b9-----|
a----------------------------7p5---------|
e----------------------------------------|

e-----------------------------------------------------|
b----------------------\10-8---8---8------------------|
g----------------------------9---9---9-7-9-9-9-9-9----|
d-7b9r7-5-----7b9r7-----------------------------------|
a---------5h7-----------------------------------------|
e-----------------------------------------------------|

e------------------------|
b------------------------|
g-7h9p7------------------|
d-------9p7h9p7/5h7p5----|
a------------------------|
e------------------------|

e------------------------------------|
b------------------------------------|
g-7h9p7------------------------------|
d-------9p7h9p7/5h7p5----------------|
a-----------------------5h7p5b7r5----|
e------------------------------------|

e---------------------------------|
b---------------------------------|
g---------------------------------|
d---------------------------------|
a---------------------------------|
e-5h7p5-h7-p5--3h5p3--p0-3p0-0----|

e----------------------------------------------|
b----------------10b12-10b12-10b12-r10---------|
g-----7h9p7-----------------------------9p7----|
d-7h9--------9p7-------------------------------|
a----------------------------------------------|
e----------------------------------------------|

e-------------------------------------------------|
b-10b12r10p8--------------------------------------|
g-------------9p7---------------------------------|
d-------------------7h9-7b9--7b9-7b9-r7p5---------|
a------------------------------------------7p5----|
e-------------------------------------------------|

e----------------------------------------------------|
b-10-10-10-10--10--12b14-12b14-12b14-r12p10----------|
g-9--9--9--9---9-----------------------------11p9----|
d----------------------------------------------------|
a----------------------------------------------------|
e----------------------------------------------------|

e----------------------------------------12----|
b-x-8-8-8-8-------------------------8b10-------|
g-x-7-7-7-7--------7h9p7--------9--------------|
d-----------7b9r7----------9p7--x--------------|
a-------------------------------7--------------|
e-------------------------------0--------------|

e------------------------|
b--10-10-10-10p8---------|
g-----------------7h9p7--|
d------------------------|
a------------------------|
e------------------------|


Verse 2 is repeated then:

e----------------------------------------|
b----------------------------------------|
g----------------------------------------|
d----------------------------------------|
a-------0--------------------------------|
e-0-3b4---3p0--0h3p-0--3b5-0--3h5p3p0----|


e-------------------------------------|
b-------------------------------------|
g-------------------------------------|
d-------------------------------------|
a-----0-------------------------------|
e-3b4---3p0--0h3p0-3-3-3--h5~~~~~-----|

Main Riff x 2


Verse 3:

same as verse 2 with different lyrics ("0800 666 0 yeah...")

Then Main Riff x 12 with freestyle 2nd guitar in E scales

ends in feedback

Touch-tone phone noises and more feedback

Outro: (sotr of)

e-------------------------------------|
b-------------------------------------|
g-------------------------------------|
d-2--2-----2----2-----2---------------|
a-2----2-----2-----2------------------|
e-0------0-----3-----2--(0)\3~~~~--0--|

            
            
Suggest correction
Creating personal tab
Creating personal tab
You can edit any tab online and save it as your Personal.

You can edit, replace or remove any tab part or add personal notes – all changes will be seen only by you.

Personal tabs can be accessed anytime from any device, even offline.
Learn more »
comments
print report bad tab
guest
You may want to rate the tab now too:
select rating
Wanna post a correction for this tab? Suggest correction