Oops, an error
Loading. Please wait.
We have an official She Bangs The Drums tab made by UG professional guitarists. Check out the tab »
×
33,109 views 60 this week
no commentswrite comment
1 2 3 4 5
x 19
add to favorites
×
Save as Personal and add changes to this tab that will be seen only by you. Learn more ›
×
You can save this tab as Personal to edit and correct it or add notes. All changes will be seen only by you. Learn more »
launch autoscroll
font size
0
reset
guitar tuner
backing track
0:00
0:00
edit
Autoscroll
slow
fast
+/-
esc
set tempo
stop
Author
This is my first tab so this is the closest thing to the actual bass tab to this song
i can get it, you have to listen to the song for the timing, so if you have any comments
corrections, just e-mail me at kenny_lee_cook@yahoo.com or put them on this
tab.


[Intro]

G|-------------------------------|
D|-------------------------------|
A|-------------------------------|
E|-0-0-2-0-4-0-0-5-4-0-2-4-2-0-0-|(x6)

then do this line 2 times then back to the intro line:
after you do the intro line 2 more times go back to this line, repeat twice.

G|--------------------|
D|--------------------|
A|-555-4-5--5--5-5-55-|
E|--------------------|

end the second time of the second line with this:

G|-----|
D|-2-2-|
A|-----|
E|-----|


[Chorus]

G|-------------------------------------------------------------------------|
D|-----------------------------------------------------------2-2-2222-2222-|
A|---------45-5-5-55-4--------45-5-5-55-4--------45-5-5-55-5---------------|
E|-5--5-55------------5--5-55------------5--5-55---------------------------|(x2)


[Pre-Solo]

G|---------------------------------------------------------|
D|---------------------------------------------------------|
A|-0-0-2-0-4-0-0-5-4-0-2-4-2-0-----------------------------|
E|-----------------------------0-0-2-0-4-0-0-5-4-0-2-4-2-0-|(x2)


[Pre-Solo Part 2]

G|----------------------|
D|----------------------|
A|----------------------|
E|-00--0-00-0-00-0-00-0-|(x2)(let ring)


[Solo]

G|------------------|
D|------------------| repeat twice then go back to pre solo.
A|-55-5-4-5-5-5-555-| after pre solo repeat this line 2 more times.
E|------------------|

on the second time on the solo end it like this:

G|-----|
D|-2-2-|
A|-----|
E|-----|


[Chorus]

G|-------------------------------------------------------------------------|
D|-----------------------------------------------------------2-2-2222-2222-|
A|---------45-5-5-55-4--------45-5-5-55-4--------45-5-5-55-5---------------|
E|-5--5-55------------5--5-55------------5--5-55---------------------------|(x2)
Keep repeating this line until the end of the song.

            
            
Suggest correction
Creating personal tab
Creating personal tab
You can edit any tab online and save it as your Personal.

You can edit, replace or remove any tab part or add personal notes – all changes will be seen only by you.

Personal tabs can be accessed anytime from any device, even offline.
Learn more »
comments
print report bad tab
guest
You may want to rate the tab now too:
select rating
Wanna post a correction for this tab? Suggest correction