Oops, an error
Loading. Please wait.
We have an official Search And Destroy tab made by UG professional guitarists. Check out the tab »
×
10,084 views 1 this week
no commentswrite comment
1 2 3 4 5
x 3
add to favorites
×
Save as Personal and add changes to this tab that will be seen only by you. Learn more ›
×
You can save this tab as Personal to edit and correct it or add notes. All changes will be seen only by you. Learn more »
launch autoscroll
font size
0
reset
how to read this tab
guitar tuner
edit
Autoscroll
slow
fast
+/-
esc
set tempo
stop
Author
Band: The Stooges
Song: Search and Destroy
Album: Raw Power
Year: 1973

Yes, I'm aware that the band was called Iggy & The Stooges when
 this was recorded, but I don't see the point of splitting up tabs
between the two band names when they were essentially the same band.


e|-----------------------------------|
B|-----------------------------------|
G|-10—-10--10-10-10-11—-11-11-10-10--|
D|-11—-11--11-11-11-11—-11-11-11-11--|
A|-11—-11--11-11-11-9---9—-9—-11-11--|
E|-9—--9—--9—-9—-9—-9---9—-9—-9—-9---|

e|----------------------9--9--------|
B|----------------------9--9--------|
G|-10—-10--10-10-10-11—-11-11-10-10-|
D|-11—-11--11-11-11-11—-11-11-11-11-|
A|-11—-11--11-11-11-9---9—-9—-11-11-|
E|-9—--9—--9—-9—-9—-9---9—-9—-9—-9—-|
This part is played over the verse pattern:
e|----------------------------------------------------|
B|----------------------------------------------------|
G|-----9-11-11b-11-----11----9—11-11b-11-9-11-9~~-----|
D|--11-------------11-----11----------------------11\-|
A|----------------------------------------------------|
E|----------------------------------------------------|

e|-9---9---9---9—-9---------9----12-14b-14-12-14-12~~~-|
B|-12B-12B-12B-12-9-12-9-12----------------------------|
G|-----------------------------------------------------|
D|-----------------------------------------------------|
A|-----------------------------------------------------|
E|-----------------------------------------------------|

Verse

e||---------------------------------------|
B||---------------------------------------|
G||*-------------------9--------------11--|
D||*-11-11-11-11-11-11-9--7-7-7-7-7-7-11--|
A||--11-11-11-11-11-11-7--7-7-7-7-7-7-9---|
E||--9--9--9--9—-9—-9-----5-5-5-5-5-5-----|

e|----------------------9--9---------||
B|----------------------9--9---------||
G|-10—-10--10-10-10-11—-11-11-10-10-*||
D|-11—-11--11-11-11-11—-11-11-11-11-*||
A|-11—-11--11-11-11-9---9—-9—-11-11--||
E|-9—--9—--9—-9—-9—-9---9—-9—-9—-9—--||


There’s a lot of strumming in these next parts, but I didn’t bother to write it out.


e|-------------------------------------|
B|-------------------------------------|
G|-6—-4-—2-0-----4----6—-4-—2-0-----4--|
D|-6—-4-—2-002---4----6—-4-—2-002---4--|
A|-4—-2-—0-002---2----4—-2-—0-002---2--|
E|----------00-----------------00------|

e|----------------------------------------|
B|----------------------------------------|
G|----------------------2—-2-2------------|
D|-3-4-4-4--------------2--2-2--------0-2-|
A|-3/4-4-4----------2-4-0--0-0----0-2-----|
E|-1/2-2-2------2-4-----------------------|

e|---0---0-------------------------|
B|---0---0-------------------------|
G|---1---1-------------------------|
D|---2---2-------------6-6-6-6-6-6-|
A|---2---2-------2-4---6-6-6-6-6-6-|
E|-0-0—--0---2-4-----4-4-4-4-4-4-4-|

Verse

e||---------------------------------------|
B||---------------------------------------|
G||*-------------------9--------------11--|
D||*-11-11-11-11-11-11-9--7-7-7-7-7-7-11--|
A||--11-11-11-11-11-11-7--7-7-7-7-7-7-9---|
E||--9--9--9--9—-9—9------5-5-5-5-5-5-----|

e|----------------------9--9---------||
B|----------------------9--9---------||
G|-10—-10--10-10-10-11—-11-11-10-10-*||
D|-11—-11--11-11-11-11—-11-11-11-11-*||
A|-11—-11--11-11-11-9---9—-9—-11-11--||
E|-9—--9—--9—-9—-9—-9---9—-9—-9—-9—--||


e|-------------------------------------|
B|-------------------------------------|
G|-6—-4-—2-0-----4----6—-4-—2-0-----4--|
D|-6—-4-—2-002---4----6—-4-—2-002---4--|
A|-4—-2-—0-002---2----4—-2-—0-002---2--|
E|----------00-----------------00------|

e|----------------------------------------|
B|----------------------------------------|
G|----------------------2—-2-2------------|
D|-3-4-4-4--------------2--2-2--------0-2-|
A|-3/4-4-4----------2-4-0--0-0----0-2-----|
E|-1/2-2-2------2-4-----------------------|

e|---0---0-------------------------|
B|---0---0-------------------------|
G|---1---1-------------------------|
D|---2---2-------------6-6-6-6-6-6-|
A|---2---2-------2-4---6-6-6-6-6-6-|
E|-0-0—--0---2-4-----4-4-4-4-4-4-4-|


Chorus

							X4
e||--------------------------------||
B||--------------------------------||
G||*-10---------------------------*||
D||*-11---9-4-4---7-7-7---9-9-9---*||
A||--11---9-4-4---7-7-7---9-9-9----||
E||--9----7-2-2---5-5-5---7-7-7----||

Again, played over the verse pattern:
e|----------------------------------------------------|
B|----------------------------------------------------|
G|-----9-11-11b-11-----11----9—11-11b-11-9-11-9~~-----|
D|--11-------------11-----11----------------------11\-|
A|----------------------------------------------------|
E|----------------------------------------------------|

e|-9---9---9---9—-9---------9----12-14b-14-12-14-12~~~-|
B|-12B-12B-12B-12-9-12-9-12----------------------------|
G|-----------------------------------------------------|
D|-----------------------------------------------------|
A|-----------------------------------------------------|
E|-----------------------------------------------------|

Verse

e||---------------------------------------|
B||---------------------------------------|
G||*-------------------9--------------11--|
D||*-11-11-11-11-11-11-9--7-7-7-7-7-7-11--|
A||--11-11-11-11-11-11-7--7-7-7-7-7-7-9---|
E||--9--9--9--9—-9—9------5-5-5-5-5-5-----|

e|----------------------9--9---------||
B|----------------------9--9---------||
G|-10—-10--10-10-10-11—-11-11-10-10-*||
D|-11—-11--11-11-11-11—-11-11-11-11-*||
A|-11—-11--11-11-11-9---9—-9—-11-11--||
E|-9—--9—--9—-9—-9—-9---9—-9—-9—-9—--||


e|-------------------------------------|
B|-------------------------------------|
G|-6—-4-—2-0-----4----6—-4-—2-0-----4--|
D|-6—-4-—2-002---4----6—-4-—2-002---4--|
A|-4—-2-—0-002---2----4—-2-—0-002---2--|
E|----------00-----------------00------|

e|----------------------------------------|
B|----------------------------------------|
G|----------------------2—-2-2------------|
D|-3-4-4-4--------------2--2-2--------0-2-|
A|-3/4-4-4----------2-4-0--0-0----0-2-----|
E|-1/2-2-2------2-4-----------------------|

e|---0---0-------------------------|
B|---0---0-------------------------|
G|---1---1-------------------------|
D|---2---2-------------6-6-6-6-6-6-|
A|---2---2-------2-4---6-6-6-6-6-6-|
E|-0-0—--0---2-4-----4-4-4-4-4-4-4-|


Chorus/Outro

							To fade
e||--------------------------------||
B||--------------------------------||
G||*-10---------------------------*||
D||*-11---9-4-4---7-7-7---9-9-9---*||
A||--11---9-4-4---7-7-7---9-9-9----||
E||--9----7-2-2---5-5-5---7-7-7----||

Notation
/		slide up
\		slide down
~		vibrato
b		1/2 step bend
B		whole step bend

I’m a street walking cheetah with a heart full of napalm
I’m a runaway son of the nuclear a-bomb
I am the world’s forgotten boy
The one who searches and destroys

Honey gotta help me please
Somebody gotta save my soul
Baby detonate for me

Look out honey, cause I’m using technology
Ain’t got time to make no apology
Soul radiation in the dead of night
Love in the middle of a fire fight

Honey gotta strike me blind
Somebody gotta save my soul
Baby penetrate my mind

And I’m the worlds forgotten boy
The one who’s searchin’, searchin’ to destroy
And honey I’m the worlds forgotten boy
The one who’s searchin’, searchin’ to destroy

Forgotten boy, forgotten boy
Forgotten boy said hey forgotten boy

            
            
Suggest correction
Creating personal tab
Creating personal tab
You can edit any tab online and save it as your Personal.

You can edit, replace or remove any tab part or add personal notes – all changes will be seen only by you.

Personal tabs can be accessed anytime from any device, even offline.
Learn more »
Give kudos to tab author, rate the tab!
1 2 3 4 5
comments
print report bad tab
guest
You may want to rate the tab now too:
select rating
Wanna post a correction for this tab? Suggest correction