Oops, an error
Loading. Please wait.

Solo tab

6,562 views 39 this week
1 commentread comment
1 2 3 4 5
x 7
add to favorites
×
Save as Personal and add changes to this tab that will be seen only by you. Learn more ›
×
You can save this tab as Personal to edit and correct it or add notes. All changes will be seen only by you. Learn more »
launch autoscroll
font size
0
reset
how to read this tab
guitar tuner
edit
Autoscroll
slow
fast
+/-
esc
set tempo
stop
Solo - The Story So Far
Tabbed by: 14caiom
E-mail: 14caiom@gmail.com
Tuning:1/2 step down
Lead Guitar FIRST, Rhythm second
[Lead Guitar]
Tuning HALF STEP DOWN

[Intro]
(0:25) "VOID"
(notice the spacing for the 5's on the E string, this is not a mistake)
E|-----------------------------5------------------------5------------------------------------|
B|-1/3-333--5--7--5--3---------------3--3/5--7--5--3-----------------------------------------|
G|-------------------------------------------------------------------------------------------|
D|-------------------------------------------------------------------------------------------|
A|-------------------------------------------------------------------------------------------|
E|-------------------------------------------------------------------------------------------|

E|-----------------------------5-------------------------5-----------------------------------|
B|-3--3/5--7--5--3---------------------3--3/5--7--5--3---------------------------------------|
G|--------------------------------------------------------------------------(x3)-------------|
D|-------------------------------------------------------------------------------------------|
A|-------------------------------------------------------------------------------------------|
E|-------------------------------------------------------------------------------------------|

(0:43) Transition
E|----------------------|
B|---------3--5--7------|
G|----------------------|
D|----------------------|
A|----------------------|
E|----------------------|

[Verse]
(0:44)
("Call.. and we can hash it out, i could tell you what i'm so mad about"(5/7 when he says "about")
E|-----2-----2--5--2-----5--2------------|
B|--------3--------------------3--5/7--7-| x4
G|--0-----------------0------------------|
D|---------------------------------------|
A|---------------------------------------|
E|---------------------------------------|

[Chorus]
(1:02)
("Sick of feeling that i'm late, tired of having to restate")
("Now look who can't hold their weight,i hope i'm wrong just for your sake")
E|-----5--7--5----------5--7--5------|
B|--(3)----------7--(3)----------7---|
G|-----------------------------------|
D|-----------------------------------|
A|-----------------------------------|
E|-----------------------------------|

"Can't just sit around and wait, your just not someone i can date"
Using pills and flowers to sedate, find me heal me keep my faith"
E|--------------------5-------------------|
B|--3--7--3--55--33--------3--5--7--3-----|
G|--------------------------------------x-|2(Whole Chorus/past two sections)
D|----------------------------------------|
A|----------------------------------------|
E|----------------------------------------|

[After Chorus thingy](1:23)
E|---------|
B|--0--3*--|
G|---------|
D|---------|
A|---------|
E|---------|

[Intro again](1:28)
Chorus(1:47)    x3 this time

[Rhythm Guitar]
[Intro](version 1)
E|------------------------------|
B|------------------------------|
G|---------7--------------------|     (Play until first chorus)
D|--5------7--x3---5------------|
A|--5-x7---5-------5-x5---2--0--|
E|--3--------------3------0--2--|

[Intro](version 2)
E|------------------------------|
B|------------------------------|
G|------------------------------|
D|--5----0----5----2----4-------|
A|--5----5----5----2----4-------|
E|--3----2----3----0----2-------|

[Intro](Version 3)probably MOST ACCURATE because i looked up a bunch of videos of them 
playing this song and got this.
E|--------------------------------|
B|--------------------------------|
G|--------------------------------|
D|--5-------4-------5-------------|
A|--5-------5-------5-----5----5--|
E|--3-------5-------3-----0----2--|

[Chorus](1:02)
(Chords by themselves are alternate strumming until next chord)(Capitalized words are 
when to change chords)
"Sick OF Feeling that I'm late, tired of having to RESTATE,Cant just sit around and WAIT
E|---------------------------------------------------------------------------------------|
B|---------------------------------------------------------------------------------------|
G|--------------------------------------------------------7------------------------------|
D|--4--4--4-----------------5--5--5-----------------------7---------------------------2--|
A|--4--4--4-----------------5--5--5-----------------------5---------------------------2--|
E|--2--2--2-----------------3--3--3---------------------------------------------------0--|
   (S)(of) (Feel)        (Late)(Tired)(OF)(not excact listen to song)

"Your just not someone i can DATE, now look who can't hold their WEIGHT, I hope i'm wrong..
E|-------------------------------------------------------------------------------|
B|-------------------------------------------------------------------------------|
G|-------------------------------------------------------------------------------|
D|-----------------------------4------------------------------------5------------|
A|-----------------------------4------------------------------------5------------|
E|-----------------------------2------------------------------------3------------|

"..Just for your SAKE, using pills and flowers to SEDATE, find me heal me keep my
E|--------------------------------------------------------------------|
B|--------------------------------------------------------------------|
G|-----------------7--------------------------------------------------|
D|-----------------7--------------------------------2-----------------|
A|-----------------5--------------------------------2-----------------|
E|--------------------------------------------------0-----------------|

[Verse](1:20)
"Faith"
E|----------------------------------------------------------------------------------------------------------|
B|----------------------------------------------------------------------------------------------------------|
G|----------------------------------------------------------------------------------------------------------|
D|--5-x-5-x-5----7-x-7-x-7----5-x-5-x-5----2-2-2-2---4-4-4-4------------(repeat until -second chorus)-------|
A|--5-x-5-x-5----7-x-7-x-7----5-x-5-x-5----2-2-2-2---4-4-4-4---------(the second time you do this you skip--|
E|--3-x-3-x-3----5-x-5-x-5----3-x-3-x-3----0-0-0-0---2-2-2-2----------------the muted notes, at (1:27)------|
pm                                         . . . .   . . . .

[Chorus](1:47)
(repeat chorus rhythm until about 2:12)

then
(play around with these like twice, little)

[OUTRO](2:13)
E|---------|
B|---------|
G|---------|
D|----4-5--|
A|----4-5--|
E|----2-3--|

************************************

| /    Slide up
| (n)  Ghost note
| x    Dead note
| *    Natural harmonic
| .    Staccato

************************************

            
            
Suggest correction
Creating personal tab
Creating personal tab
You can edit any tab online and save it as your Personal.

You can edit, replace or remove any tab part or add personal notes – all changes will be seen only by you.

Personal tabs can be accessed anytime from any device, even offline.
Learn more »
comments
print report bad tab
1 comment total.
0 reply
marksaun 93 Nov 09, 2017 08:37 PM

Chrods in the intro

Eb|---------------|
Bb|---------------|
Gb|---------------|
Db|-4--4--4--4--4-|
Ab|-5--5--5--5--5-|
Eb|-3--5--3--0--2-|

guest
You may want to rate the tab now too:
select rating
Wanna post a correction for this tab? Suggest correction