Oops, an error
Loading. Please wait.

The Glass tab

version 1
version 1

Whole song

Interactive

26,181 views 51 this week
1 commentread comment
1 2 3 4 5
x 7
add to favorites
×
Save as Personal and add changes to this tab that will be seen only by you. Learn more ›
×
You can save this tab as Personal to edit and correct it or add notes. All changes will be seen only by you. Learn more »
launch autoscroll
font size
0
reset
how to read this tab
guitar tuner
edit
Autoscroll
slow
fast
+/-
esc
set tempo
stop
Artist: The Story So Far
Album: What You Don’t See
Track: The Glass
Tuning: Half step down (D#G#C#F#A#D# OR EbAbDbGbBbeb)
NB: . means palm mute, mid-section repeat between ‘o’

Intro
Lead
eb|------------------------------|------------------------------|
Bb|------------------------------|------------------------------|
Gb|------------------------------|------------------------------|
Db|-4~~~~~-----------------------|------------------------------|
Ab|------------------------------|------------------------------|
Eb|------------------------------|------------------------------|

eb|--------------------0---------|----0-----------------------0-|
Bb|------------------------------|------------2-----------------|
Gb|----------------2-------2---2-|--2-----2-------2---2-----2---|
Db|--------------4-----------4---|2-----------------------2-----|
Ab|------------------------------|------2-----------2-----------|
Eb|------------------------------|------------------------------|

eb|------0-------------0---------|--------------0-----0---------|
Bb|----------------------------2-|------------------------------|
Gb|--2-------2---2---2-----2-----|--2---2-----2-----2-----2---2-|
Db|4-----------4---2-------------|----------2-----4---------4---|
Ab|----------------------2-------|----2-------------------------|
Eb|------------------------------|------------------------------|

eb|----0-----------------------0-|------0-------------0---------|
Bb|------------2-----------------|------------------------------|
Gb|--2-----2-------2---2-----2---|--2-------2---2---2-------2---|
Db|2-----------------------2-----|4-----------4---2-------------|
Ab|------2-----------2-----------|------------------------2-----|
Eb|------------------------------|------------------------------|

eb|------------------------------|
Bb|2---------------2-2-----------|
Gb|----2---2-----2---2-----------|
Db|------------2-----2-----------|
Ab|------2-----------------------|
Eb|------------------------------|

eb|-------0-------------0-------0|-----------------------------0|
Bb|------------------------------|-------2-------------2--------|
Gb|---2-----2---2---2-------2----|---2-----2---2---2-------2----|
Db|-4---------4---4-------2------|-----------------------2------|
Ab|------------------------------|-2---------2---2--------------|
Eb|------------------------------|------------------------------|

eb|-------0-------------0-------0|-----------------------------0|
Bb|------------------------------|-------2-------------2--------|
Gb|---2-----2---2---2-------2----|---2-----2---2---2-------2----|
Db|-4---------4---4-------2------|-----------------------2------|
Ab|------------------------------|-2---------2---2--------------|
Eb|------------------------------|------------------------------|

Rhythm                                                       x3
eb|------------------------------|------------------------------|
Bb|------------------------------|o----------------------------o|
Gb|------------------------------|------------------------------|
Db|-4~~~~~-----------------------|------------------------------|
Ab|------------------------------|o----------------------------o|
Eb|------------------------------|------------------------------|

eb|------------------------------|------------------------------|
Bb|------------------------------|------------------------------|
Gb|------------------------------|-----------6------7-----------|
Db|------------------------------|-----------7------7-----------|
Ab|------------------------------|-----------4------5-----------|
Eb|------------------------------|------------------------------|

eb|------------------------------|------------------------------|
Bb|------------------------------|------------------------------|
Gb|------------------------6-----|7-----------------------------|
Db|------------------------7-----|7-----------------------------|
Ab|------------------------4-----|5-----------------------------|
Eb|------------------------------|------------------------------|

eb|------------------------------|
Bb|------------------------------|
Gb|--------------------6---------|
Db|--------------------7---------|
Ab|--------------------4---------|
Eb|------------------------------|

eb|------------------------------|-------------------------------|
Bb|------------------------------|-------------------------------|
Gb|-7-7---7-7-7---7-7-7---7-2-2--|-2-4-4---4-4-4---4-4-4---4-6-6-|
Db|-7-7---7-7-7---7-7-7---7-2-2--|-2-4-4---4-4-4---4-4-4---4-7-7-|
Ab|-5-5---5-5-5---5-5-5---5-0-0--|-0-2-2---2-2-2---2-2-2---2-4-4-|
Eb|------------------------------|-------------------------------|

eb|------------------------------|-------------------------------|
Bb|------------------------------|-------------------------------|
Gb|-7-7---7-7-7---7-7-7---7-2-2--|-2-4-4---4-4-4---4-4-4---4-2-2-|
Db|-7-7---7-7-7---7-7-7---7-2-2--|-2-4-4---4-4-4---4-4-4---4-2-2-|
Ab|-5-5---5-5-5---5-5-5---5-0-0--|-0-2-2---2-2-2---2-2-2---2-0-0-|
Eb|------------------------------|-------------------------------|

Verse 1
eb|-------------------------------|-------------------------------|
Bb|-------------------------------|-------------------------------|
Gb|-------9---9-9---------9---9-9-|--------6---6-6---------6---6-6|
Db|-7-7-7-7---7-7---7-7-7-7---7-7-|--4-4-4-4---4-4---4-4-4-4---4-4|
Ab|-5-5-5-5---5-5---5-5-5-5---5-5-|--2-2-2-2---2-2---2-2-2-2---2-2|
Eb|-------------------------------|-------------------------------|
    . . .           . . .            . . .           . . . 
                                    Lead                        OR Rhythm
eb|--------------------------------|----------------12-----------|------------------------------|
Bb|--------------------------------|-10--------10--------10------|------------------------------|
Gb|-------9---9-9---------9---9-9--|------9-------------------9--|----------------2----2----2---|
Db|-7-7-7-7---7-7---7-7-7-7---7-7--|-----------------------------|-4----4----4----2----2----2---|
Ab|-5-5-5-5---5-5---5-5-5-5---5-5--|-----------------------------|-4----4----4----0----0----0---|
Eb|--------------------------------|-----------------------------|-2----2----2------------------|
    . . .           . . .            
eb|-------------------------------|-------------------------------|
Bb|-------------------------------|-------------------------------|
Gb|-------9---9-9---------9---9-9-|--------6---6-6---------6---6-6|
Db|-7-7-7-7---7-7---7-7-7-7---7-7-|--4-4-4-4---4-4---4-4-4-4---4-4|
Ab|-5-5-5-5---5-5---5-5-5-5---5-5-|--2-2-2-2---2-2---2-2-2-2---2-2|
Eb|-------------------------------|-------------------------------|
    . . .           . . .            . . .           . . .                                    
                                    Lead                        OR Rhythm
eb|--------------------------------|-9--------------9------------|------------------------------|
Bb|--------------------------------|------10------------10-------|------------------------------|
Gb|-------9---9-9---------9---9-9--|-----------9--------------9--|----------------2----2----2---|
Db|-7-7-7-7---7-7---7-7-7-7---7-7--|-----------------------------|-4----4----4----2----2----2---|
Ab|-5-5-5-5---5-5---5-5-5-5---5-5--|-----------------------------|-4----4----4----0----0----0---|
Eb|--------------------------------|-----------------------------|-2----2----2------------------|

Prechorus
eb|-----------------------------|
Bb|-----------------------------|
Gb|-6----6----6----6-6-9-119-9--|
Db|-0----0----0----0-0-0-0-0-0--|x2
Ab|-----------------------------|
Eb|-----------------------------|

Chorus
Lead
eb|------------------------------|--------------------------------|
Bb|------------------------------|--------------------------------|
Gb|-6-6-6-6-6-6-6-9---9-9-9-119-9|---6-6-6-6-6-6-6-6---4-4-4-4-4-4|
Db|-0-0-0-0-0-0-0-0---0-0-0-0-0-0|---0-0-0-0-0-0-0-0---0-0-0-0-0-0|
Ab|------------------------------|--------------------------------|
Eb|------------------------------|--------------------------------|

eb|------------------------------|--------------------------------|
Bb|------------------------------|--------------------------------|
Gb|-6-6-6-6-6-6-6-9---9-9-9-119-9|---1111--1111111111--1111111411-|
Db|-0-0-0-0-0-0-0-0---0-0-0-0-0-0|---0-0---0-0-0-0-0---0-0-0-0-0--| All x2
Ab|------------------------------|--------------------------------|
Eb|------------------------------|--------------------------------|

Rhythm
eb|------------------------------|--------------------------------|
Bb|------------------------------|--------------------------------|
Gb|-7-7-7-7-7-7-7-7-7-------2-2-2|-2-4-4-4-4-4-4-4-4---4-4-4-4-4-4|
Db|-7-7-7-7-7-7-7-7-7-4-4-4-2-2-2|-2-4-4-4-4-4-4-4-4---4-4-4-4-4-4|
Ab|-5-5-5-5-5-5-5-5-5-4-4-4-0-0-0|-0-2-2-2-2-2-2-2-2---2-2-2-2-2-2|
Eb|-------------------2-2-2------|--------------------------------|

eb|------------------------------|--------------------------------|
Bb|------------------------------|--------------------------------|
Gb|-7-7-7-7-7-7-7-7-7-------2-2-2|-2-4-4---4-4-4-4-4---4-4-4-2-2-2|
Db|-7-7-7-7-7-7-7-7-7-4-4-4-2-2-2|-2-4-4---4-4-4-4-4---4-4-4-2-2-2| All x2
Ab|-5-5-5-5-5-5-5-5-5-4-4-4-0-0-0|-0-2-2---2-2-2-2-2---2-2-2-0-0-0|
Eb|-------------------2-2-2------|--------------------------------|

Verse 2 same as verse 1

Prechorus

Chorus

Outro
Lead
eb|-------0-------------0-------0|-----------------------------0|
Bb|------------------------------|-------2-------------2--------|
Gb|---2-----2---2---2-------2----|---2-----2---2---2-------2----|
Db|-4---------4---4-------2------|-----------------------2------| x6
Ab|------------------------------|-2---------2---2--------------|
Eb|------------------------------|------------------------------|

Rhythm
eb|------------------------------|------------------------------|
Bb|------------------------------|------------------------------|
Gb|------------------------------|-----------6------7-----------|
Db|------------------------------|-----------7------7-----------|
Ab|------------------------------|-----------4------5-----------|
Eb|------------------------------|------------------------------|

eb|------------------------------|------------------------------|
Bb|------------------------------|------------------------------|
Gb|------------------------------|------------------------------|
Db|------------------------------|------------------------------|
Ab|------------------------------|------------------------------|
Eb|------------------------------|------------------------------|

eb|------------------------------|------------------------------|
Bb|------------------------------|------------------------------|
Gb|------------------------------|----------------6---6---6---6-|
Db|------------------------------|----------------7---7---7---7-|
Ab|------------------------------|----------------4---4---4---4-|
Eb|------------------------------|------------------------------|

eb|-----------------------------|-------------------------------|
Bb|o----------------------------|-------------------------------|
Gb|-7-7---7-7-7---7-7-7---7-2-2-|-2-4-4---4-4-4---4-4-4---4-6-6-|
Db|-7-7---7-7-7---7-7-7---7-2-2-|-2-4-4---4-4-4---4-4-4---4-7-7-|
Ab|o5-5---5-5-5---5-5-5---5-0-0-|-0-2-2---2-2-2---2-2-2---2-4-4-|
Eb|-----------------------------|-------------------------------|
                                                              x2
eb|-----------------------------|-------------------------------|
Bb|-----------------------------|------------------------------o|
Gb|-7-7---7-7-7---7-7-7---7-2-2-|-2-4-4---4-4-4---4-4-4---4-2-2-|
Db|-7-7---7-7-7---7-7-7---7-2-2-|-2-4-4---4-4-4---4-4-4---4-2-2-|
Ab|-5-5---5-5-5---5-5-5---5-0-0-|-0-2-2---2-2-2---2-2-2---2-0-0o|
Eb|-----------------------------|-------------------------------|

eb|-----------------------------|
Bb|-----------------------------|
Gb|-7---------------------------|
Db|-7---------------------------|
Ab|-5---------------------------|
Eb|-----------------------------|

            
            
Suggest correction
Creating personal tab
Creating personal tab
You can edit any tab online and save it as your Personal.

You can edit, replace or remove any tab part or add personal notes – all changes will be seen only by you.

Personal tabs can be accessed anytime from any device, even offline.
Learn more »
comments
print report bad tab
1 comment total.
-2 reply
2006 10 May 01, 2013 04:45 PM

funny i put this same tab up and they took yours....

guest
You may want to rate the tab now too:
select rating
Wanna post a correction for this tab? Suggest correction